  0
SECTION
  2
HEADER
  9
$ACADVER
  1
AC1009
  9
$INSBASE
 10
0.0
 20
0.0
 30
0.0
  9
$EXTMIN
 10
-6.460505
 20
-5.166667
 30
0.0
  9
$EXTMAX
 10
6.460505
 20
5.166667
 30
0.0
  9
$LIMMIN
 10
0.0
 20
0.0
  9
$LIMMAX
 10
0.0
 20
0.0
  9
$ORTHOMODE
 70
     0
  9
$REGENMODE
 70
     1
  9
$FILLMODE
 70
     1
  9
$QTEXTMODE
 70
     0
  9
$MIRRTEXT
 70
     1
  9
$DRAGMODE
 70
     2
  9
$LTSCALE
 40
1.25042
  9
$OSMODE
 70
     0
  9
$ATTMODE
 70
     1
  9
$TEXTSIZE
 40
0.2
  9
$TRACEWID
 40
0.05
  9
$TEXTSTYLE
  7
STANDARD
  9
$CLAYER
  8
0
  9
$CELTYPE
  6
CONTINUOUS
  9
$CECOLOR
 62
   256
  9
$DIMSCALE
 40
1.0
  9
$DIMASZ
 40
0.18
  9
$DIMEXO
 40
0.0625
  9
$DIMDLI
 40
0.38
  9
$DIMRND
 40
0.0
  9
$DIMDLE
 40
0.0
  9
$DIMEXE
 40
0.18
  9
$DIMTP
 40
0.0
  9
$DIMTM
 40
0.0
  9
$DIMTXT
 40
0.18
  9
$DIMCEN
 40
0.09
  9
$DIMTSZ
 40
0.0
  9
$DIMTOL
 70
     0
  9
$DIMLIM
 70
     0
  9
$DIMTIH
 70
     1
  9
$DIMTOH
 70
     1
  9
$DIMSE1
 70
     0
  9
$DIMSE2
 70
     0
  9
$DIMTAD
 70
     0
  9
$DIMZIN
 70
     0
  9
$DIMBLK
  1

  9
$DIMASO
 70
     1
  9
$DIMSHO
 70
     1
  9
$DIMPOST
  1

  9
$DIMAPOST
  1

  9
$DIMALT
 70
     0
  9
$DIMALTD
 70
     2
  9
$DIMALTF
 40
25.4
  9
$DIMLFAC
 40
1.0
  9
$DIMTOFL
 70
     0
  9
$DIMTVP
 40
0.0
  9
$DIMTIX
 70
     0
  9
$DIMSOXD
 70
     0
  9
$DIMSAH
 70
     0
  9
$DIMBLK1
  1

  9
$DIMBLK2
  1

  9
$DIMSTYLE
  2
STANDARD
  9
$DIMCLRD
 70
     0
  9
$DIMCLRE
 70
     0
  9
$DIMCLRT
 70
     0
  9
$DIMTFAC
 40
1.0
  9
$DIMGAP
 40
0.09
  9
$LUNITS
 70
     2
  9
$LUPREC
 70
     4
  9
$AXISMODE
 70
     0
  9
$AXISUNIT
 10
0.0
 20
0.0
  9
$SKETCHINC
 40
0.1
  9
$FILLETRAD
 40
0.0
  9
$AUNITS
 70
     0
  9
$AUPREC
 70
     0
  9
$MENU
  1
acad
  9
$ELEVATION
 40
0.0
  9
$PELEVATION
 40
0.0
  9
$THICKNESS
 40
0.0
  9
$LIMCHECK
 70
     0
  9
$BLIPMODE
 70
     1
  9
$CHAMFERA
 40
0.0
  9
$CHAMFERB
 40
0.0
  9
$SKPOLY
 70
     0
  9
$TDCREATE
 40
2451806.703784722
  9
$TDUPDATE
 40
2451806.703784722
  9
$TDINDWG
 40
0.0000000000
  9
$TDUSRTIMER
 40
0.0000000000
  9
$USRTIMER
 70
     1
  9
$ANGBASE
 50
0.0
  9
$ANGDIR
 70
     0
  9
$PDMODE
 70
     0
  9
$PDSIZE
 40
0.0
  9
$PLINEWID
 40
0.0
  9
$COORDS
 70
     0
  9
$SPLFRAME
 70
     0
  9
$SPLINETYPE
 70
     6
  9
$SPLINESEGS
 70
     8
  9
$ATTDIA
 70
     0
  9
$ATTREQ
 70
     1
  9
$HANDLING
 70
     1
  9
$HANDSEED
  5
5FD
  9
$SURFTAB1
 70
     6
  9
$SURFTAB2
 70
     6
  9
$SURFTYPE
 70
     6
  9
$SURFU
 70
     6
  9
$SURFV
 70
     6
  9
$UCSNAME
  2

  9
$UCSORG
 10
0.0
 20
0.0
 30
0.0
  9
$UCSXDIR
 10
1.0
 20
0.0
 30
0.0
  9
$UCSYDIR
 10
0.0
 20
1.0
 30
0.0
  9
$PUCSNAME
  2

  9
$PUCSORG
 10
0.0
 20
0.0
 30
0.0
  9
$PUCSXDIR
 10
1.0
 20
0.0
 30
0.0
  9
$PUCSYDIR
 10
0.0
 20
1.0
 30
0.0
  9
$USERI1
 70
     0
  9
$USERI2
 70
     0
  9
$USERI3
 70
     0
  9
$USERI4
 70
     0
  9
$USERI5
 70
     0
  9
$USERR1
 40
0.0
  9
$USERR2
 40
0.0
  9
$USERR3
 40
0.0
  9
$USERR4
 40
0.0
  9
$USERR5
 40
0.0
  9
$WORLDVIEW
 70
     1
  9
$SHADEDGE
 70
     3
  9
$SHADEDIF
 70
    70
  9
$TILEMODE
 70
     1
  9
$MAXACTVP
 70
    16
  9
$PINSBASE
 10
0.0
 20
0.0
 30
0.0
  9
$PLIMCHECK
 70
     0
  9
$PEXTMIN
 10
1.000000E+20
 20
1.000000E+20
 30
1.000000E+20
  9
$PEXTMAX
 10
-1.000000E+20
 20
-1.000000E+20
 30
-1.000000E+20
  9
$PLIMMIN
 10
0.0
 20
0.0
  9
$PLIMMAX
 10
12.0
 20
9.0
  9
$UNITMODE
 70
     0
  9
$VISRETAIN
 70
     0
  9
$PLINEGEN
 70
     1
  9
$PSLTSCALE
 70
     0
  9
$TREEDEPTH
 70
  3020
  9
$DWGCODEPAGE
  3
dos850
  0
ENDSEC
  0
SECTION
  2
TABLES
  0
TABLE
  2
VPORT
 70
     1
  0
VPORT
  2
*ACTIVE
 70
     0
 10
0.0
 20
0.0
 11
1.0
 21
1.0
 12
0.0
 22
0.0
 13
0.0
 23
0.0
 14
1.0
 24
1.0
 15
0.0
 25
0.0
 16
0.0
 26
0.0
 36
1.0
 17
0.0
 27
0.0
 37
0.0
 40
10.0
 41
0.688564
 42
50.0
 43
0.0
 44
0.0
 50
0.0
 51
0.0
 71
     0
 72
   100
 73
     1
 74
     1
 75
     0
 76
     0
 77
     0
 78
     0
  0
ENDTAB
  0
TABLE
  2
LTYPE
 70
    11
  0
LTYPE
  2
CONTINUOUS
 70
     0
  3
Solid line
 72
    65
 73
     0
 40
0.0
  0
LTYPE
  2
MCDASH01
 70
     0
  3

 72
    65
 73
     2
 40
0.06664
 49
0.03331
 49
-0.033325
  0
LTYPE
  2
MCDASH02
 70
     0
  3

 72
    65
 73
     2
 40
0.111071
 49
0.077744
 49
-0.033325
  0
LTYPE
  2
MCDASH03
 70
     0
  3

 72
    65
 73
     2
 40
0.199933
 49
0.166611
 49
-0.033325
  0
LTYPE
  2
MCDASH04
 70
     0
  3

 72
    65
 73
     2
 40
0.244351
 49
0.211044
 49
-0.03331
  0
LTYPE
  2
MCDASH05
 70
     0
  3

 72
    65
 73
     2
 40
0.033314
 49
0.011108
 49
-0.022217
  0
LTYPE
  2
MCDASH06
 70
     0
  3

 72
    65
 73
     4
 40
0.166606
 49
0.09996
 49
-0.03331
 49
0.011108
 49
-0.022217
  0
LTYPE
  2
MCDASH07
 70
     0
  3

 72
    65
 73
     6
 40
0.299899
 49
0.09996
 49
-0.03331
 49
0.09996
 49
-0.033325
 49
0.011108
 49
-0.022217
  0
LTYPE
  2
MCDASH08
 70
     0
  3

 72
    65
 73
     6
 40
0.199933
 49
0.09996
 49
-0.03331
 49
0.011108
 49
-0.022217
 49
0.011108
 49
-0.022217
  0
LTYPE
  2
MCDASH09
 70
     0
  3

 72
    65
 73
     4
 40
0.799731
 49
0.599792
 49
-0.044434
 49
0.111069
 49
-0.044434
  0
LTYPE
  2
MCDASH10
 70
     0
  3

 72
    65
 73
     6
 40
0.949681
 49
0.599792
 49
-0.044434
 49
0.111069
 49
-0.044434
 49
0.09996
 49
-0.049988
  0
ENDTAB
  0
TABLE
  2
LAYER
 70
     3
  0
LAYER
  2
0
 70
     0
 62
     7
  6
CONTINUOUS
  0
LAYER
  2
0
 70
    64
 62
     7
  6
CONTINUOUS
  0
LAYER
  2
LAYER-1
 70
    64
 62
     7
  6
CONTINUOUS
  0
ENDTAB
  0
TABLE
  2
STYLE
 70
     1
  0
STYLE
  2
STANDARD
 70
     0
 40
0.0
 41
1.0
 50
0.0
 71
     0
 42
0.0
  3
txt
  4

  0
ENDTAB
  0
TABLE
  2
VIEW
 70
     0
  0
ENDTAB
  0
TABLE
  2
UCS
 70
     0
  0
ENDTAB
  0
TABLE
  2
APPID
 70
     1
  0
APPID
  2
ACAD
 70
     0
  0
ENDTAB
  0
TABLE
  2
DIMSTYLE
 70
     1
  0
DIMSTYLE
  2
STANDARD
 70
     0
  3

  4

  5

  6

  7

 40
1.0
 41
0.18
 42
0.0625
 43
0.38
 44
0.18
 45
0.0
 46
0.0
 47
0.0
 48
0.0
140
0.18
141
0.09
142
0.0
143
25.4
144
1.0
145
0.0
146
1.0
147
0.09
 71
     0
 72
     0
 73
     1
 74
     1
 75
     0
 76
     0
 77
     0
 78
     0
170
     0
171
     2
172
     0
173
     0
174
     0
175
     0
176
     0
177
     0
178
     0
  0
ENDTAB
  0
ENDSEC
  0
SECTION
  2
BLOCKS
  0
ENDSEC
  0
SECTION
  2
ENTITIES
  0
POLYLINE
  8
0
  6
CONTINUOUS
 62
     7
  5
2C
 66
     1
 10
0.0
 20
0.0
 30
0.0
 70
     5
 40
0.035012
 41
0.035012
 75
     5
  0
VERTEX
  8
0
  6
CONTINUOUS
 62
     7
  5
2D
 10
-5.755483
 20
0.411471
 30
0.0
  0
VERTEX
  8
0
  6
CONTINUOUS
 62
     7
  5
2E
 10
-5.755634
 20
0.417606
 30
0.0
  0
VERTEX
  8
0
  6
CONTINUOUS
 62
     7
  5
2F
 10
-5.756085
 20
0.423725
 30
0.0
  0
VERTEX
  8
0
  6
CONTINUOUS
 62
     7
  5
30
 10
-5.756836
 20
0.429816
 30
0.0
  0
VERTEX
  8
0
  6
CONTINUOUS
 62
     7
  5
31
 10
-5.757885
 20
0.43586
 30
0.0
  0
VERTEX
  8
0
  6
CONTINUOUS
 62
     7
  5
32
 10
-5.75923
 20
0.441849
 30
0.0
  0
VERTEX
  8
0
  6
CONTINUOUS
 62
     7
  5
33
 10
-5.760866
 20
0.447762
 30
0.0
  0
VERTEX
  8
0
  6
CONTINUOUS
 62
     7
  5
34
 10
-5.762792
 20
0.453589
 30
0.0
  0
VERTEX
  8
0
  6
CONTINUOUS
 62
     7
  5
35
 10
-5.765
 20
0.459313
 30
0.0
  0
VERTEX
  8
0
  6
CONTINUOUS
 62
     7
  5
36
 10
-5.767487
 20
0.464924
 30
0.0
  0
VERTEX
  8
0
  6
CONTINUOUS
 62
     7
  5
37
 10
-5.770246
 20
0.470404
 30
0.0
  0
VERTEX
  8
0
  6
CONTINUOUS
 62
     7
  5
38
 10
-5.773271
 20
0.475743
 30
0.0
  0
VERTEX
  8
0
  6
CONTINUOUS
 62
     7
  5
39
 10
-5.776554
 20
0.480926
 30
0.0
  0
VERTEX
  8
0
  6
CONTINUOUS
 62
     7
  5
3A
 10
-5.780088
 20
0.485944
 30
0.0
  0
VERTEX
  8
0
  6
CONTINUOUS
 62
     7
  5
3B
 10
-5.783864
 20
0.49078
 30
0.0
  0
VERTEX
  8
0
  6
CONTINUOUS
 62
     7
  5
3C
 10
-5.787873
 20
0.495427
 30
0.0
  0
VERTEX
  8
0
  6
CONTINUOUS
 62
     7
  5
3D
 10
-5.792105
 20
0.499871
 30
0.0
  0
VERTEX
  8
0
  6
CONTINUOUS
 62
     7
  5
3E
 10
-5.796551
 20
0.504102
 30
0.0
  0
VERTEX
  8
0
  6
CONTINUOUS
 62
     7
  5
3F
 10
-5.801197
 20
0.508109
 30
0.0
  0
VERTEX
  8
0
  6
CONTINUOUS
 62
     7
  5
40
 10
-5.806036
 20
0.511884
 30
0.0
  0
VERTEX
  8
0
  6
CONTINUOUS
 62
     7
  5
41
 10
-5.811052
 20
0.515416
 30
0.0
  0
VERTEX
  8
0
  6
CONTINUOUS
 62
     7
  5
42
 10
-5.816238
 20
0.518699
 30
0.0
  0
VERTEX
  8
0
  6
CONTINUOUS
 62
     7
  5
43
 10
-5.821577
 20
0.521722
 30
0.0
  0
VERTEX
  8
0
  6
CONTINUOUS
 62
     7
  5
44
 10
-5.827059
 20
0.52448
 30
0.0
  0
VERTEX
  8
0
  6
CONTINUOUS
 62
     7
  5
45
 10
-5.832669
 20
0.526965
 30
0.0
  0
VERTEX
  8
0
  6
CONTINUOUS
 62
     7
  5
46
 10
-5.838395
 20
0.529173
 30
0.0
  0
VERTEX
  8
0
  6
CONTINUOUS
 62
     7
  5
47
 10
-5.844221
 20
0.531096
 30
0.0
  0
VERTEX
  8
0
  6
CONTINUOUS
 62
     7
  5
48
 10
-5.850136
 20
0.532731
 30
0.0
  0
VERTEX
  8
0
  6
CONTINUOUS
 62
     7
  5
49
 10
-5.856123
 20
0.534074
 30
0.0
  0
VERTEX
  8
0
  6
CONTINUOUS
 62
     7
  5
4A
 10
-5.86217
 20
0.535122
 30
0.0
  0
VERTEX
  8
0
  6
CONTINUOUS
 62
     7
  5
4B
 10
-5.868259
 20
0.535871
 30
0.0
  0
VERTEX
  8
0
  6
CONTINUOUS
 62
     7
  5
4C
 10
-5.87438
 20
0.536321
 30
0.0
  0
VERTEX
  8
0
  6
CONTINUOUS
 62
     7
  5
4D
 10
-5.880452
 20
0.53647
 30
0.0
  0
VERTEX
  8
0
  6
CONTINUOUS
 62
     7
  5
4E
 10
-5.886586
 20
0.536321
 30
0.0
  0
VERTEX
  8
0
  6
CONTINUOUS
 62
     7
  5
4F
 10
-5.892707
 20
0.535871
 30
0.0
  0
VERTEX
  8
0
  6
CONTINUOUS
 62
     7
  5
50
 10
-5.898796
 20
0.535122
 30
0.0
  0
VERTEX
  8
0
  6
CONTINUOUS
 62
     7
  5
51
 10
-5.904843
 20
0.534074
 30
0.0
  0
VERTEX
  8
0
  6
CONTINUOUS
 62
     7
  5
52
 10
-5.91083
 20
0.532731
 30
0.0
  0
VERTEX
  8
0
  6
CONTINUOUS
 62
     7
  5
53
 10
-5.916745
 20
0.531096
 30
0.0
  0
VERTEX
  8
0
  6
CONTINUOUS
 62
     7
  5
54
 10
-5.922571
 20
0.529173
 30
0.0
  0
VERTEX
  8
0
  6
CONTINUOUS
 62
     7
  5
55
 10
-5.928298
 20
0.526965
 30
0.0
  0
VERTEX
  8
0
  6
CONTINUOUS
 62
     7
  5
56
 10
-5.933907
 20
0.52448
 30
0.0
  0
VERTEX
  8
0
  6
CONTINUOUS
 62
     7
  5
57
 10
-5.939389
 20
0.521722
 30
0.0
  0
VERTEX
  8
0
  6
CONTINUOUS
 62
     7
  5
58
 10
-5.944728
 20
0.518699
 30
0.0
  0
VERTEX
  8
0
  6
CONTINUOUS
 62
     7
  5
59
 10
-5.949914
 20
0.515416
 30
0.0
  0
VERTEX
  8
0
  6
CONTINUOUS
 62
     7
  5
5A
 10
-5.95493
 20
0.511884
 30
0.0
  0
VERTEX
  8
0
  6
CONTINUOUS
 62
     7
  5
5B
 10
-5.959769
 20
0.508109
 30
0.0
  0
VERTEX
  8
0
  6
CONTINUOUS
 62
     7
  5
5C
 10
-5.964415
 20
0.504102
 30
0.0
  0
VERTEX
  8
0
  6
CONTINUOUS
 62
     7
  5
5D
 10
-5.968861
 20
0.499871
 30
0.0
  0
VERTEX
  8
0
  6
CONTINUOUS
 62
     7
  5
5E
 10
-5.973093
 20
0.495427
 30
0.0
  0
VERTEX
  8
0
  6
CONTINUOUS
 62
     7
  5
5F
 10
-5.977102
 20
0.49078
 30
0.0
  0
VERTEX
  8
0
  6
CONTINUOUS
 62
     7
  5
60
 10
-5.980878
 20
0.485944
 30
0.0
  0
VERTEX
  8
0
  6
CONTINUOUS
 62
     7
  5
61
 10
-5.984412
 20
0.480926
 30
0.0
  0
VERTEX
  8
0
  6
CONTINUOUS
 62
     7
  5
62
 10
-5.987695
 20
0.475743
 30
0.0
  0
VERTEX
  8
0
  6
CONTINUOUS
 62
     7
  5
63
 10
-5.99072
 20
0.470404
 30
0.0
  0
VERTEX
  8
0
  6
CONTINUOUS
 62
     7
  5
64
 10
-5.993479
 20
0.464924
 30
0.0
  0
VERTEX
  8
0
  6
CONTINUOUS
 62
     7
  5
65
 10
-5.995966
 20
0.459313
 30
0.0
  0
VERTEX
  8
0
  6
CONTINUOUS
 62
     7
  5
66
 10
-5.998175
 20
0.453589
 30
0.0
  0
VERTEX
  8
0
  6
CONTINUOUS
 62
     7
  5
67
 10
-6.0001
 20
0.447762
 30
0.0
  0
VERTEX
  8
0
  6
CONTINUOUS
 62
     7
  5
68
 10
-6.001736
 20
0.441849
 30
0.0
  0
VERTEX
  8
0
  6
CONTINUOUS
 62
     7
  5
69
 10
-6.003081
 20
0.43586
 30
0.0
  0
VERTEX
  8
0
  6
CONTINUOUS
 62
     7
  5
6A
 10
-6.00413
 20
0.429816
 30
0.0
  0
VERTEX
  8
0
  6
CONTINUOUS
 62
     7
  5
6B
 10
-6.004881
 20
0.423725
 30
0.0
  0
VERTEX
  8
0
  6
CONTINUOUS
 62
     7
  5
6C
 10
-6.005332
 20
0.417606
 30
0.0
  0
VERTEX
  8
0
  6
CONTINUOUS
 62
     7
  5
6D
 10
-6.005483
 20
0.411471
 30
0.0
  0
VERTEX
  8
0
  6
CONTINUOUS
 62
     7
  5
6E
 10
-6.005332
 20
0.405335
 30
0.0
  0
VERTEX
  8
0
  6
CONTINUOUS
 62
     7
  5
6F
 10
-6.004881
 20
0.399216
 30
0.0
  0
VERTEX
  8
0
  6
CONTINUOUS
 62
     7
  5
70
 10
-6.00413
 20
0.393125
 30
0.0
  0
VERTEX
  8
0
  6
CONTINUOUS
 62
     7
  5
71
 10
-6.003081
 20
0.38708
 30
0.0
  0
VERTEX
  8
0
  6
CONTINUOUS
 62
     7
  5
72
 10
-6.001736
 20
0.381092
 30
0.0
  0
VERTEX
  8
0
  6
CONTINUOUS
 62
     7
  5
73
 10
-6.0001
 20
0.375179
 30
0.0
  0
VERTEX
  8
0
  6
CONTINUOUS
 62
     7
  5
74
 10
-5.998175
 20
0.369352
 30
0.0
  0
VERTEX
  8
0
  6
CONTINUOUS
 62
     7
  5
75
 10
-5.995966
 20
0.363628
 30
0.0
  0
VERTEX
  8
0
  6
CONTINUOUS
 62
     7
  5
76
 10
-5.993479
 20
0.358017
 30
0.0
  0
VERTEX
  8
0
  6
CONTINUOUS
 62
     7
  5
77
 10
-5.99072
 20
0.352537
 30
0.0
  0
VERTEX
  8
0
  6
CONTINUOUS
 62
     7
  5
78
 10
-5.987695
 20
0.347198
 30
0.0
  0
VERTEX
  8
0
  6
CONTINUOUS
 62
     7
  5
79
 10
-5.984412
 20
0.342015
 30
0.0
  0
VERTEX
  8
0
  6
CONTINUOUS
 62
     7
  5
7A
 10
-5.980878
 20
0.336997
 30
0.0
  0
VERTEX
  8
0
  6
CONTINUOUS
 62
     7
  5
7B
 10
-5.977102
 20
0.332161
 30
0.0
  0
VERTEX
  8
0
  6
CONTINUOUS
 62
     7
  5
7C
 10
-5.973093
 20
0.327514
 30
0.0
  0
VERTEX
  8
0
  6
CONTINUOUS
 62
     7
  5
7D
 10
-5.968861
 20
0.32307
 30
0.0
  0
VERTEX
  8
0
  6
CONTINUOUS
 62
     7
  5
7E
 10
-5.964415
 20
0.318839
 30
0.0
  0
VERTEX
  8
0
  6
CONTINUOUS
 62
     7
  5
7F
 10
-5.959769
 20
0.314832
 30
0.0
  0
VERTEX
  8
0
  6
CONTINUOUS
 62
     7
  5
80
 10
-5.95493
 20
0.311057
 30
0.0
  0
VERTEX
  8
0
  6
CONTINUOUS
 62
     7
  5
81
 10
-5.949914
 20
0.307525
 30
0.0
  0
VERTEX
  8
0
  6
CONTINUOUS
 62
     7
  5
82
 10
-5.944728
 20
0.304242
 30
0.0
  0
VERTEX
  8
0
  6
CONTINUOUS
 62
     7
  5
83
 10
-5.939389
 20
0.301219
 30
0.0
  0
VERTEX
  8
0
  6
CONTINUOUS
 62
     7
  5
84
 10
-5.933907
 20
0.298461
 30
0.0
  0
VERTEX
  8
0
  6
CONTINUOUS
 62
     7
  5
85
 10
-5.928298
 20
0.295976
 30
0.0
  0
VERTEX
  8
0
  6
CONTINUOUS
 62
     7
  5
86
 10
-5.922571
 20
0.293768
 30
0.0
  0
VERTEX
  8
0
  6
CONTINUOUS
 62
     7
  5
87
 10
-5.916745
 20
0.291845
 30
0.0
  0
VERTEX
  8
0
  6
CONTINUOUS
 62
     7
  5
88
 10
-5.91083
 20
0.29021
 30
0.0
  0
VERTEX
  8
0
  6
CONTINUOUS
 62
     7
  5
89
 10
-5.904843
 20
0.288867
 30
0.0
  0
VERTEX
  8
0
  6
CONTINUOUS
 62
     7
  5
8A
 10
-5.898796
 20
0.287819
 30
0.0
  0
VERTEX
  8
0
  6
CONTINUOUS
 62
     7
  5
8B
 10
-5.892707
 20
0.287069
 30
0.0
  0
VERTEX
  8
0
  6
CONTINUOUS
 62
     7
  5
8C
 10
-5.886586
 20
0.28662
 30
0.0
  0
VERTEX
  8
0
  6
CONTINUOUS
 62
     7
  5
8D
 10
-5.880452
 20
0.286471
 30
0.0
  0
VERTEX
  8
0
  6
CONTINUOUS
 62
     7
  5
8E
 10
-5.87438
 20
0.28662
 30
0.0
  0
VERTEX
  8
0
  6
CONTINUOUS
 62
     7
  5
8F
 10
-5.868259
 20
0.287069
 30
0.0
  0
VERTEX
  8
0
  6
CONTINUOUS
 62
     7
  5
90
 10
-5.86217
 20
0.287819
 30
0.0
  0
VERTEX
  8
0
  6
CONTINUOUS
 62
     7
  5
91
 10
-5.856123
 20
0.288867
 30
0.0
  0
VERTEX
  8
0
  6
CONTINUOUS
 62
     7
  5
92
 10
-5.850136
 20
0.29021
 30
0.0
  0
VERTEX
  8
0
  6
CONTINUOUS
 62
     7
  5
93
 10
-5.844221
 20
0.291845
 30
0.0
  0
VERTEX
  8
0
  6
CONTINUOUS
 62
     7
  5
94
 10
-5.838395
 20
0.293768
 30
0.0
  0
VERTEX
  8
0
  6
CONTINUOUS
 62
     7
  5
95
 10
-5.832669
 20
0.295976
 30
0.0
  0
VERTEX
  8
0
  6
CONTINUOUS
 62
     7
  5
96
 10
-5.827059
 20
0.298461
 30
0.0
  0
VERTEX
  8
0
  6
CONTINUOUS
 62
     7
  5
97
 10
-5.821577
 20
0.301219
 30
0.0
  0
VERTEX
  8
0
  6
CONTINUOUS
 62
     7
  5
98
 10
-5.816238
 20
0.304242
 30
0.0
  0
VERTEX
  8
0
  6
CONTINUOUS
 62
     7
  5
99
 10
-5.811052
 20
0.307525
 30
0.0
  0
VERTEX
  8
0
  6
CONTINUOUS
 62
     7
  5
9A
 10
-5.806036
 20
0.311057
 30
0.0
  0
VERTEX
  8
0
  6
CONTINUOUS
 62
     7
  5
9B
 10
-5.801197
 20
0.314832
 30
0.0
  0
VERTEX
  8
0
  6
CONTINUOUS
 62
     7
  5
9C
 10
-5.796551
 20
0.318839
 30
0.0
  0
VERTEX
  8
0
  6
CONTINUOUS
 62
     7
  5
9D
 10
-5.792105
 20
0.32307
 30
0.0
  0
VERTEX
  8
0
  6
CONTINUOUS
 62
     7
  5
9E
 10
-5.787873
 20
0.327514
 30
0.0
  0
VERTEX
  8
0
  6
CONTINUOUS
 62
     7
  5
9F
 10
-5.783864
 20
0.332161
 30
0.0
  0
VERTEX
  8
0
  6
CONTINUOUS
 62
     7
  5
A0
 10
-5.780088
 20
0.336997
 30
0.0
  0
VERTEX
  8
0
  6
CONTINUOUS
 62
     7
  5
A1
 10
-5.776554
 20
0.342015
 30
0.0
  0
VERTEX
  8
0
  6
CONTINUOUS
 62
     7
  5
A2
 10
-5.773271
 20
0.347198
 30
0.0
  0
VERTEX
  8
0
  6
CONTINUOUS
 62
     7
  5
A3
 10
-5.770246
 20
0.352537
 30
0.0
  0
VERTEX
  8
0
  6
CONTINUOUS
 62
     7
  5
A4
 10
-5.767487
 20
0.358017
 30
0.0
  0
VERTEX
  8
0
  6
CONTINUOUS
 62
     7
  5
A5
 10
-5.765
 20
0.363628
 30
0.0
  0
VERTEX
  8
0
  6
CONTINUOUS
 62
     7
  5
A6
 10
-5.762792
 20
0.369352
 30
0.0
  0
VERTEX
  8
0
  6
CONTINUOUS
 62
     7
  5
A7
 10
-5.760866
 20
0.375179
 30
0.0
  0
VERTEX
  8
0
  6
CONTINUOUS
 62
     7
  5
A8
 10
-5.75923
 20
0.381092
 30
0.0
  0
VERTEX
  8
0
  6
CONTINUOUS
 62
     7
  5
A9
 10
-5.757885
 20
0.38708
 30
0.0
  0
VERTEX
  8
0
  6
CONTINUOUS
 62
     7
  5
AA
 10
-5.756836
 20
0.393125
 30
0.0
  0
VERTEX
  8
0
  6
CONTINUOUS
 62
     7
  5
AB
 10
-5.756085
 20
0.399216
 30
0.0
  0
VERTEX
  8
0
  6
CONTINUOUS
 62
     7
  5
AC
 10
-5.755634
 20
0.405335
 30
0.0
  0
SEQEND
  8
0
  6
CONTINUOUS
  5
AD
  0
POLYLINE
  8
0
  6
CONTINUOUS
 62
     7
  5
AE
 66
     1
 10
0.0
 20
0.0
 30
0.0
 40
0.035012
 41
0.035012
  0
VERTEX
  8
0
  6
CONTINUOUS
 62
     7
  5
AF
 10
-6.055483
 20
1.186471
 30
0.0
  0
VERTEX
  8
0
  6
CONTINUOUS
 62
     7
  5
B0
 10
-6.055483
 20
0.086471
 30
0.0
  0
SEQEND
  8
0
  6
CONTINUOUS
  5
B1
  0
POLYLINE
  8
0
  6
CONTINUOUS
 62
     7
  5
B2
 66
     1
 10
0.0
 20
0.0
 30
0.0
 70
     5
 40
0.035012
 41
0.035012
 75
     5
  0
VERTEX
  8
0
  6
CONTINUOUS
 62
     7
  5
B3
 10
-5.305483
 20
2.71647
 30
0.0
  0
VERTEX
  8
0
  6
CONTINUOUS
 62
     7
  5
B4
 10
-5.305634
 20
2.722606
 30
0.0
  0
VERTEX
  8
0
  6
CONTINUOUS
 62
     7
  5
B5
 10
-5.306085
 20
2.728725
 30
0.0
  0
VERTEX
  8
0
  6
CONTINUOUS
 62
     7
  5
B6
 10
-5.306837
 20
2.734816
 30
0.0
  0
VERTEX
  8
0
  6
CONTINUOUS
 62
     7
  5
B7
 10
-5.307886
 20
2.740861
 30
0.0
  0
VERTEX
  8
0
  6
CONTINUOUS
 62
     7
  5
B8
 10
-5.30923
 20
2.746849
 30
0.0
  0
VERTEX
  8
0
  6
CONTINUOUS
 62
     7
  5
B9
 10
-5.310867
 20
2.752762
 30
0.0
  0
VERTEX
  8
0
  6
CONTINUOUS
 62
     7
  5
BA
 10
-5.312792
 20
2.758589
 30
0.0
  0
VERTEX
  8
0
  6
CONTINUOUS
 62
     7
  5
BB
 10
-5.315
 20
2.764313
 30
0.0
  0
VERTEX
  8
0
  6
CONTINUOUS
 62
     7
  5
BC
 10
-5.317487
 20
2.769924
 30
0.0
  0
VERTEX
  8
0
  6
CONTINUOUS
 62
     7
  5
BD
 10
-5.320246
 20
2.775403
 30
0.0
  0
VERTEX
  8
0
  6
CONTINUOUS
 62
     7
  5
BE
 10
-5.323271
 20
2.780743
 30
0.0
  0
VERTEX
  8
0
  6
CONTINUOUS
 62
     7
  5
BF
 10
-5.326554
 20
2.785926
 30
0.0
  0
VERTEX
  8
0
  6
CONTINUOUS
 62
     7
  5
C0
 10
-5.330089
 20
2.790944
 30
0.0
  0
VERTEX
  8
0
  6
CONTINUOUS
 62
     7
  5
C1
 10
-5.333864
 20
2.79578
 30
0.0
  0
VERTEX
  8
0
  6
CONTINUOUS
 62
     7
  5
C2
 10
-5.337873
 20
2.800427
 30
0.0
  0
VERTEX
  8
0
  6
CONTINUOUS
 62
     7
  5
C3
 10
-5.342105
 20
2.80487
 30
0.0
  0
VERTEX
  8
0
  6
CONTINUOUS
 62
     7
  5
C4
 10
-5.346551
 20
2.809102
 30
0.0
  0
VERTEX
  8
0
  6
CONTINUOUS
 62
     7
  5
C5
 10
-5.351197
 20
2.813109
 30
0.0
  0
VERTEX
  8
0
  6
CONTINUOUS
 62
     7
  5
C6
 10
-5.356036
 20
2.816884
 30
0.0
  0
VERTEX
  8
0
  6
CONTINUOUS
 62
     7
  5
C7
 10
-5.361053
 20
2.820416
 30
0.0
  0
VERTEX
  8
0
  6
CONTINUOUS
 62
     7
  5
C8
 10
-5.366238
 20
2.823699
 30
0.0
  0
VERTEX
  8
0
  6
CONTINUOUS
 62
     7
  5
C9
 10
-5.371577
 20
2.826722
 30
0.0
  0
VERTEX
  8
0
  6
CONTINUOUS
 62
     7
  5
CA
 10
-5.377059
 20
2.82948
 30
0.0
  0
VERTEX
  8
0
  6
CONTINUOUS
 62
     7
  5
CB
 10
-5.382669
 20
2.831965
 30
0.0
  0
VERTEX
  8
0
  6
CONTINUOUS
 62
     7
  5
CC
 10
-5.388395
 20
2.834173
 30
0.0
  0
VERTEX
  8
0
  6
CONTINUOUS
 62
     7
  5
CD
 10
-5.394221
 20
2.836096
 30
0.0
  0
VERTEX
  8
0
  6
CONTINUOUS
 62
     7
  5
CE
 10
-5.400136
 20
2.837731
 30
0.0
  0
VERTEX
  8
0
  6
CONTINUOUS
 62
     7
  5
CF
 10
-5.406123
 20
2.839074
 30
0.0
  0
VERTEX
  8
0
  6
CONTINUOUS
 62
     7
  5
D0
 10
-5.41217
 20
2.840122
 30
0.0
  0
VERTEX
  8
0
  6
CONTINUOUS
 62
     7
  5
D1
 10
-5.418259
 20
2.840871
 30
0.0
  0
VERTEX
  8
0
  6
CONTINUOUS
 62
     7
  5
D2
 10
-5.42438
 20
2.841321
 30
0.0
  0
VERTEX
  8
0
  6
CONTINUOUS
 62
     7
  5
D3
 10
-5.430453
 20
2.84147
 30
0.0
  0
VERTEX
  8
0
  6
CONTINUOUS
 62
     7
  5
D4
 10
-5.436586
 20
2.841321
 30
0.0
  0
VERTEX
  8
0
  6
CONTINUOUS
 62
     7
  5
D5
 10
-5.442707
 20
2.840871
 30
0.0
  0
VERTEX
  8
0
  6
CONTINUOUS
 62
     7
  5
D6
 10
-5.448796
 20
2.840122
 30
0.0
  0
VERTEX
  8
0
  6
CONTINUOUS
 62
     7
  5
D7
 10
-5.454843
 20
2.839074
 30
0.0
  0
VERTEX
  8
0
  6
CONTINUOUS
 62
     7
  5
D8
 10
-5.46083
 20
2.837731
 30
0.0
  0
VERTEX
  8
0
  6
CONTINUOUS
 62
     7
  5
D9
 10
-5.466745
 20
2.836096
 30
0.0
  0
VERTEX
  8
0
  6
CONTINUOUS
 62
     7
  5
DA
 10
-5.472571
 20
2.834173
 30
0.0
  0
VERTEX
  8
0
  6
CONTINUOUS
 62
     7
  5
DB
 10
-5.478297
 20
2.831965
 30
0.0
  0
VERTEX
  8
0
  6
CONTINUOUS
 62
     7
  5
DC
 10
-5.483907
 20
2.82948
 30
0.0
  0
VERTEX
  8
0
  6
CONTINUOUS
 62
     7
  5
DD
 10
-5.489389
 20
2.826722
 30
0.0
  0
VERTEX
  8
0
  6
CONTINUOUS
 62
     7
  5
DE
 10
-5.494728
 20
2.823699
 30
0.0
  0
VERTEX
  8
0
  6
CONTINUOUS
 62
     7
  5
DF
 10
-5.499913
 20
2.820416
 30
0.0
  0
VERTEX
  8
0
  6
CONTINUOUS
 62
     7
  5
E0
 10
-5.50493
 20
2.816884
 30
0.0
  0
VERTEX
  8
0
  6
CONTINUOUS
 62
     7
  5
E1
 10
-5.509769
 20
2.813109
 30
0.0
  0
VERTEX
  8
0
  6
CONTINUOUS
 62
     7
  5
E2
 10
-5.514415
 20
2.809102
 30
0.0
  0
VERTEX
  8
0
  6
CONTINUOUS
 62
     7
  5
E3
 10
-5.518861
 20
2.80487
 30
0.0
  0
VERTEX
  8
0
  6
CONTINUOUS
 62
     7
  5
E4
 10
-5.523093
 20
2.800427
 30
0.0
  0
VERTEX
  8
0
  6
CONTINUOUS
 62
     7
  5
E5
 10
-5.527102
 20
2.79578
 30
0.0
  0
VERTEX
  8
0
  6
CONTINUOUS
 62
     7
  5
E6
 10
-5.530877
 20
2.790944
 30
0.0
  0
VERTEX
  8
0
  6
CONTINUOUS
 62
     7
  5
E7
 10
-5.534412
 20
2.785926
 30
0.0
  0
VERTEX
  8
0
  6
CONTINUOUS
 62
     7
  5
E8
 10
-5.537695
 20
2.780743
 30
0.0
  0
VERTEX
  8
0
  6
CONTINUOUS
 62
     7
  5
E9
 10
-5.54072
 20
2.775403
 30
0.0
  0
VERTEX
  8
0
  6
CONTINUOUS
 62
     7
  5
EA
 10
-5.543479
 20
2.769924
 30
0.0
  0
VERTEX
  8
0
  6
CONTINUOUS
 62
     7
  5
EB
 10
-5.545966
 20
2.764313
 30
0.0
  0
VERTEX
  8
0
  6
CONTINUOUS
 62
     7
  5
EC
 10
-5.548174
 20
2.758589
 30
0.0
  0
VERTEX
  8
0
  6
CONTINUOUS
 62
     7
  5
ED
 10
-5.5501
 20
2.752762
 30
0.0
  0
VERTEX
  8
0
  6
CONTINUOUS
 62
     7
  5
EE
 10
-5.551736
 20
2.746849
 30
0.0
  0
VERTEX
  8
0
  6
CONTINUOUS
 62
     7
  5
EF
 10
-5.553081
 20
2.740861
 30
0.0
  0
VERTEX
  8
0
  6
CONTINUOUS
 62
     7
  5
F0
 10
-5.55413
 20
2.734816
 30
0.0
  0
VERTEX
  8
0
  6
CONTINUOUS
 62
     7
  5
F1
 10
-5.554881
 20
2.728725
 30
0.0
  0
VERTEX
  8
0
  6
CONTINUOUS
 62
     7
  5
F2
 10
-5.555332
 20
2.722606
 30
0.0
  0
VERTEX
  8
0
  6
CONTINUOUS
 62
     7
  5
F3
 10
-5.555483
 20
2.71647
 30
0.0
  0
VERTEX
  8
0
  6
CONTINUOUS
 62
     7
  5
F4
 10
-5.555332
 20
2.710335
 30
0.0
  0
VERTEX
  8
0
  6
CONTINUOUS
 62
     7
  5
F5
 10
-5.554881
 20
2.704216
 30
0.0
  0
VERTEX
  8
0
  6
CONTINUOUS
 62
     7
  5
F6
 10
-5.55413
 20
2.698125
 30
0.0
  0
VERTEX
  8
0
  6
CONTINUOUS
 62
     7
  5
F7
 10
-5.553081
 20
2.69208
 30
0.0
  0
VERTEX
  8
0
  6
CONTINUOUS
 62
     7
  5
F8
 10
-5.551736
 20
2.686092
 30
0.0
  0
VERTEX
  8
0
  6
CONTINUOUS
 62
     7
  5
F9
 10
-5.5501
 20
2.680179
 30
0.0
  0
VERTEX
  8
0
  6
CONTINUOUS
 62
     7
  5
FA
 10
-5.548174
 20
2.674352
 30
0.0
  0
VERTEX
  8
0
  6
CONTINUOUS
 62
     7
  5
FB
 10
-5.545966
 20
2.668628
 30
0.0
  0
VERTEX
  8
0
  6
CONTINUOUS
 62
     7
  5
FC
 10
-5.543479
 20
2.663017
 30
0.0
  0
VERTEX
  8
0
  6
CONTINUOUS
 62
     7
  5
FD
 10
-5.54072
 20
2.657537
 30
0.0
  0
VERTEX
  8
0
  6
CONTINUOUS
 62
     7
  5
FE
 10
-5.537695
 20
2.652198
 30
0.0
  0
VERTEX
  8
0
  6
CONTINUOUS
 62
     7
  5
FF
 10
-5.534412
 20
2.647015
 30
0.0
  0
VERTEX
  8
0
  6
CONTINUOUS
 62
     7
  5
100
 10
-5.530877
 20
2.641997
 30
0.0
  0
VERTEX
  8
0
  6
CONTINUOUS
 62
     7
  5
101
 10
-5.527102
 20
2.637161
 30
0.0
  0
VERTEX
  8
0
  6
CONTINUOUS
 62
     7
  5
102
 10
-5.523093
 20
2.632514
 30
0.0
  0
VERTEX
  8
0
  6
CONTINUOUS
 62
     7
  5
103
 10
-5.518861
 20
2.62807
 30
0.0
  0
VERTEX
  8
0
  6
CONTINUOUS
 62
     7
  5
104
 10
-5.514415
 20
2.623839
 30
0.0
  0
VERTEX
  8
0
  6
CONTINUOUS
 62
     7
  5
105
 10
-5.509769
 20
2.619832
 30
0.0
  0
VERTEX
  8
0
  6
CONTINUOUS
 62
     7
  5
106
 10
-5.50493
 20
2.616057
 30
0.0
  0
VERTEX
  8
0
  6
CONTINUOUS
 62
     7
  5
107
 10
-5.499913
 20
2.612525
 30
0.0
  0
VERTEX
  8
0
  6
CONTINUOUS
 62
     7
  5
108
 10
-5.494728
 20
2.609242
 30
0.0
  0
VERTEX
  8
0
  6
CONTINUOUS
 62
     7
  5
109
 10
-5.489389
 20
2.606219
 30
0.0
  0
VERTEX
  8
0
  6
CONTINUOUS
 62
     7
  5
10A
 10
-5.483907
 20
2.603461
 30
0.0
  0
VERTEX
  8
0
  6
CONTINUOUS
 62
     7
  5
10B
 10
-5.478297
 20
2.600976
 30
0.0
  0
VERTEX
  8
0
  6
CONTINUOUS
 62
     7
  5
10C
 10
-5.472571
 20
2.598768
 30
0.0
  0
VERTEX
  8
0
  6
CONTINUOUS
 62
     7
  5
10D
 10
-5.466745
 20
2.596845
 30
0.0
  0
VERTEX
  8
0
  6
CONTINUOUS
 62
     7
  5
10E
 10
-5.46083
 20
2.59521
 30
0.0
  0
VERTEX
  8
0
  6
CONTINUOUS
 62
     7
  5
10F
 10
-5.454843
 20
2.593867
 30
0.0
  0
VERTEX
  8
0
  6
CONTINUOUS
 62
     7
  5
110
 10
-5.448796
 20
2.592819
 30
0.0
  0
VERTEX
  8
0
  6
CONTINUOUS
 62
     7
  5
111
 10
-5.442707
 20
2.59207
 30
0.0
  0
VERTEX
  8
0
  6
CONTINUOUS
 62
     7
  5
112
 10
-5.436586
 20
2.59162
 30
0.0
  0
VERTEX
  8
0
  6
CONTINUOUS
 62
     7
  5
113
 10
-5.430453
 20
2.591471
 30
0.0
  0
VERTEX
  8
0
  6
CONTINUOUS
 62
     7
  5
114
 10
-5.42438
 20
2.59162
 30
0.0
  0
VERTEX
  8
0
  6
CONTINUOUS
 62
     7
  5
115
 10
-5.418259
 20
2.59207
 30
0.0
  0
VERTEX
  8
0
  6
CONTINUOUS
 62
     7
  5
116
 10
-5.41217
 20
2.592819
 30
0.0
  0
VERTEX
  8
0
  6
CONTINUOUS
 62
     7
  5
117
 10
-5.406123
 20
2.593867
 30
0.0
  0
VERTEX
  8
0
  6
CONTINUOUS
 62
     7
  5
118
 10
-5.400136
 20
2.59521
 30
0.0
  0
VERTEX
  8
0
  6
CONTINUOUS
 62
     7
  5
119
 10
-5.394221
 20
2.596845
 30
0.0
  0
VERTEX
  8
0
  6
CONTINUOUS
 62
     7
  5
11A
 10
-5.388395
 20
2.598768
 30
0.0
  0
VERTEX
  8
0
  6
CONTINUOUS
 62
     7
  5
11B
 10
-5.382669
 20
2.600976
 30
0.0
  0
VERTEX
  8
0
  6
CONTINUOUS
 62
     7
  5
11C
 10
-5.377059
 20
2.603461
 30
0.0
  0
VERTEX
  8
0
  6
CONTINUOUS
 62
     7
  5
11D
 10
-5.371577
 20
2.606219
 30
0.0
  0
VERTEX
  8
0
  6
CONTINUOUS
 62
     7
  5
11E
 10
-5.366238
 20
2.609242
 30
0.0
  0
VERTEX
  8
0
  6
CONTINUOUS
 62
     7
  5
11F
 10
-5.361053
 20
2.612525
 30
0.0
  0
VERTEX
  8
0
  6
CONTINUOUS
 62
     7
  5
120
 10
-5.356036
 20
2.616057
 30
0.0
  0
VERTEX
  8
0
  6
CONTINUOUS
 62
     7
  5
121
 10
-5.351197
 20
2.619832
 30
0.0
  0
VERTEX
  8
0
  6
CONTINUOUS
 62
     7
  5
122
 10
-5.346551
 20
2.623839
 30
0.0
  0
VERTEX
  8
0
  6
CONTINUOUS
 62
     7
  5
123
 10
-5.342105
 20
2.62807
 30
0.0
  0
VERTEX
  8
0
  6
CONTINUOUS
 62
     7
  5
124
 10
-5.337873
 20
2.632514
 30
0.0
  0
VERTEX
  8
0
  6
CONTINUOUS
 62
     7
  5
125
 10
-5.333864
 20
2.637161
 30
0.0
  0
VERTEX
  8
0
  6
CONTINUOUS
 62
     7
  5
126
 10
-5.330089
 20
2.641997
 30
0.0
  0
VERTEX
  8
0
  6
CONTINUOUS
 62
     7
  5
127
 10
-5.326554
 20
2.647015
 30
0.0
  0
VERTEX
  8
0
  6
CONTINUOUS
 62
     7
  5
128
 10
-5.323271
 20
2.652198
 30
0.0
  0
VERTEX
  8
0
  6
CONTINUOUS
 62
     7
  5
129
 10
-5.320246
 20
2.657537
 30
0.0
  0
VERTEX
  8
0
  6
CONTINUOUS
 62
     7
  5
12A
 10
-5.317487
 20
2.663017
 30
0.0
  0
VERTEX
  8
0
  6
CONTINUOUS
 62
     7
  5
12B
 10
-5.315
 20
2.668628
 30
0.0
  0
VERTEX
  8
0
  6
CONTINUOUS
 62
     7
  5
12C
 10
-5.312792
 20
2.674352
 30
0.0
  0
VERTEX
  8
0
  6
CONTINUOUS
 62
     7
  5
12D
 10
-5.310867
 20
2.680179
 30
0.0
  0
VERTEX
  8
0
  6
CONTINUOUS
 62
     7
  5
12E
 10
-5.30923
 20
2.686092
 30
0.0
  0
VERTEX
  8
0
  6
CONTINUOUS
 62
     7
  5
12F
 10
-5.307886
 20
2.69208
 30
0.0
  0
VERTEX
  8
0
  6
CONTINUOUS
 62
     7
  5
130
 10
-5.306837
 20
2.698125
 30
0.0
  0
VERTEX
  8
0
  6
CONTINUOUS
 62
     7
  5
131
 10
-5.306085
 20
2.704216
 30
0.0
  0
VERTEX
  8
0
  6
CONTINUOUS
 62
     7
  5
132
 10
-5.305634
 20
2.710335
 30
0.0
  0
SEQEND
  8
0
  6
CONTINUOUS
  5
133
  0
POLYLINE
  8
0
  6
CONTINUOUS
 62
     7
  5
134
 66
     1
 10
0.0
 20
0.0
 30
0.0
 40
0.035012
 41
0.035012
  0
VERTEX
  8
0
  6
CONTINUOUS
 62
     7
  5
135
 10
-6.055483
 20
1.186471
 30
0.0
  0
VERTEX
  8
0
  6
CONTINUOUS
 62
     7
  5
136
 10
-5.955483
 20
1.186471
 30
0.0
  0
SEQEND
  8
0
  6
CONTINUOUS
  5
137
  0
POLYLINE
  8
0
  6
CONTINUOUS
 62
     7
  5
138
 66
     1
 10
0.0
 20
0.0
 30
0.0
 40
0.035012
 41
0.035012
  0
VERTEX
  8
0
  6
CONTINUOUS
 62
     7
  5
139
 10
-5.955483
 20
1.186471
 30
0.0
  0
VERTEX
  8
0
  6
CONTINUOUS
 62
     7
  5
13A
 10
-5.955483
 20
3.149471
 30
0.0
  0
SEQEND
  8
0
  6
CONTINUOUS
  5
13B
  0
POLYLINE
  8
0
  6
CONTINUOUS
 62
     7
  5
13C
 66
     1
 10
0.0
 20
0.0
 30
0.0
 40
0.035012
 41
0.035012
  0
VERTEX
  8
0
  6
CONTINUOUS
 62
     7
  5
13D
 10
-5.955483
 20
3.149471
 30
0.0
  0
VERTEX
  8
0
  6
CONTINUOUS
 62
     7
  5
13E
 10
-1.130483
 20
3.150637
 30
0.0
  0
SEQEND
  8
0
  6
CONTINUOUS
  5
13F
  0
LINE
  8
0
  6
CONTINUOUS
 62
     7
  5
140
 10
1.626632
 20
3.149471
 30
0.0
 11
1.656517
 21
3.149471
 31
0.0
  0
POLYLINE
  8
0
  6
CONTINUOUS
 62
     7
  5
141
 66
     1
 10
0.0
 20
0.0
 30
0.0
 70
     4
 40
0.035012
 41
0.035012
 75
     5
  0
VERTEX
  8
0
  6
CONTINUOUS
 62
     7
  5
142
 10
1.342295
 20
2.808899
 30
0.0
  0
VERTEX
  8
0
  6
CONTINUOUS
 62
     7
  5
143
 10
1.355275
 20
2.816132
 30
0.0
  0
VERTEX
  8
0
  6
CONTINUOUS
 62
     7
  5
144
 10
1.368162
 20
2.823746
 30
0.0
  0
VERTEX
  8
0
  6
CONTINUOUS
 62
     7
  5
145
 10
1.380847
 20
2.831675
 30
0.0
  0
VERTEX
  8
0
  6
CONTINUOUS
 62
     7
  5
146
 10
1.393338
 20
2.839923
 30
0.0
  0
VERTEX
  8
0
  6
CONTINUOUS
 62
     7
  5
147
 10
1.40562
 20
2.848479
 30
0.0
  0
VERTEX
  8
0
  6
CONTINUOUS
 62
     7
  5
148
 10
1.417677
 20
2.857334
 30
0.0
  0
VERTEX
  8
0
  6
CONTINUOUS
 62
     7
  5
149
 10
1.429517
 20
2.866493
 30
0.0
  0
VERTEX
  8
0
  6
CONTINUOUS
 62
     7
  5
14A
 10
1.441117
 20
2.875938
 30
0.0
  0
VERTEX
  8
0
  6
CONTINUOUS
 62
     7
  5
14B
 10
1.452486
 20
2.885676
 30
0.0
  0
VERTEX
  8
0
  6
CONTINUOUS
 62
     7
  5
14C
 10
1.463601
 20
2.895688
 30
0.0
  0
VERTEX
  8
0
  6
CONTINUOUS
 62
     7
  5
14D
 10
1.47447
 20
2.905981
 30
0.0
  0
VERTEX
  8
0
  6
CONTINUOUS
 62
     7
  5
14E
 10
1.485082
 20
2.916545
 30
0.0
  0
VERTEX
  8
0
  6
CONTINUOUS
 62
     7
  5
14F
 10
1.495419
 20
2.92736
 30
0.0
  0
VERTEX
  8
0
  6
CONTINUOUS
 62
     7
  5
150
 10
1.505488
 20
2.938436
 30
0.0
  0
VERTEX
  8
0
  6
CONTINUOUS
 62
     7
  5
151
 10
1.515272
 20
2.949752
 30
0.0
  0
VERTEX
  8
0
  6
CONTINUOUS
 62
     7
  5
152
 10
1.524776
 20
2.961316
 30
0.0
  0
VERTEX
  8
0
  6
CONTINUOUS
 62
     7
  5
153
 10
1.533983
 20
2.973106
 30
0.0
  0
VERTEX
  8
0
  6
CONTINUOUS
 62
     7
  5
154
 10
1.542899
 20
2.98513
 30
0.0
  0
VERTEX
  8
0
  6
CONTINUOUS
 62
     7
  5
155
 10
1.551507
 20
2.997365
 30
0.0
  0
VERTEX
  8
0
  6
CONTINUOUS
 62
     7
  5
156
 10
1.559812
 20
3.009818
 30
0.0
  0
VERTEX
  8
0
  6
CONTINUOUS
 62
     7
  5
157
 10
1.567804
 20
3.022474
 30
0.0
  0
VERTEX
  8
0
  6
CONTINUOUS
 62
     7
  5
158
 10
1.575473
 20
3.035318
 30
0.0
  0
VERTEX
  8
0
  6
CONTINUOUS
 62
     7
  5
159
 10
1.582824
 20
3.048357
 30
0.0
  0
VERTEX
  8
0
  6
CONTINUOUS
 62
     7
  5
15A
 10
1.589843
 20
3.061568
 30
0.0
  0
VERTEX
  8
0
  6
CONTINUOUS
 62
     7
  5
15B
 10
1.596534
 20
3.074957
 30
0.0
  0
VERTEX
  8
0
  6
CONTINUOUS
 62
     7
  5
15C
 10
1.602885
 20
3.088501
 30
0.0
  0
VERTEX
  8
0
  6
CONTINUOUS
 62
     7
  5
15D
 10
1.608901
 20
3.102207
 30
0.0
  0
VERTEX
  8
0
  6
CONTINUOUS
 62
     7
  5
15E
 10
1.614572
 20
3.11606
 30
0.0
  0
VERTEX
  8
0
  6
CONTINUOUS
 62
     7
  5
15F
 10
1.619893
 20
3.13004
 30
0.0
  0
VERTEX
  8
0
  6
CONTINUOUS
 62
     7
  5
160
 10
1.624867
 20
3.144158
 30
0.0
  0
VERTEX
  8
0
  6
CONTINUOUS
 62
     7
  5
161
 10
1.629484
 20
3.158387
 30
0.0
  0
VERTEX
  8
0
  6
CONTINUOUS
 62
     7
  5
162
 10
1.633747
 20
3.172735
 30
0.0
  0
VERTEX
  8
0
  6
CONTINUOUS
 62
     7
  5
163
 10
1.637649
 20
3.187177
 30
0.0
  0
VERTEX
  8
0
  6
CONTINUOUS
 62
     7
  5
164
 10
1.641192
 20
3.20172
 30
0.0
  0
VERTEX
  8
0
  6
CONTINUOUS
 62
     7
  5
165
 10
1.644371
 20
3.216347
 30
0.0
  0
VERTEX
  8
0
  6
CONTINUOUS
 62
     7
  5
166
 10
1.647183
 20
3.231039
 30
0.0
  0
VERTEX
  8
0
  6
CONTINUOUS
 62
     7
  5
167
 10
1.649629
 20
3.245807
 30
0.0
  0
VERTEX
  8
0
  6
CONTINUOUS
 62
     7
  5
168
 10
1.651704
 20
3.260621
 30
0.0
  0
VERTEX
  8
0
  6
CONTINUOUS
 62
     7
  5
169
 10
1.653411
 20
3.275492
 30
0.0
  0
VERTEX
  8
0
  6
CONTINUOUS
 62
     7
  5
16A
 10
1.654746
 20
3.290392
 30
0.0
  0
VERTEX
  8
0
  6
CONTINUOUS
 62
     7
  5
16B
 10
1.655709
 20
3.305329
 30
0.0
  0
VERTEX
  8
0
  6
CONTINUOUS
 62
     7
  5
16C
 10
1.656299
 20
3.320286
 30
0.0
  0
VERTEX
  8
0
  6
CONTINUOUS
 62
     7
  5
16D
 10
1.656516
 20
3.335244
 30
0.0
  0
VERTEX
  8
0
  6
CONTINUOUS
 62
     7
  5
16E
 10
1.65636
 20
3.350211
 30
0.0
  0
VERTEX
  8
0
  6
CONTINUOUS
 62
     7
  5
16F
 10
1.655831
 20
3.365161
 30
0.0
  0
VERTEX
  8
0
  6
CONTINUOUS
 62
     7
  5
170
 10
1.654929
 20
3.380103
 30
0.0
  0
VERTEX
  8
0
  6
CONTINUOUS
 62
     7
  5
171
 10
1.653655
 20
3.395008
 30
0.0
  0
VERTEX
  8
0
  6
CONTINUOUS
 62
     7
  5
172
 10
1.652009
 20
3.409885
 30
0.0
  0
VERTEX
  8
0
  6
CONTINUOUS
 62
     7
  5
173
 10
1.649993
 20
3.424717
 30
0.0
  0
VERTEX
  8
0
  6
CONTINUOUS
 62
     7
  5
174
 10
1.647609
 20
3.439485
 30
0.0
  0
VERTEX
  8
0
  6
CONTINUOUS
 62
     7
  5
175
 10
1.644856
 20
3.454198
 30
0.0
  0
VERTEX
  8
0
  6
CONTINUOUS
 62
     7
  5
176
 10
1.641738
 20
3.468829
 30
0.0
  0
VERTEX
  8
0
  6
CONTINUOUS
 62
     7
  5
177
 10
1.638255
 20
3.483387
 30
0.0
  0
VERTEX
  8
0
  6
CONTINUOUS
 62
     7
  5
178
 10
1.634412
 20
3.497844
 30
0.0
  0
VERTEX
  8
0
  6
CONTINUOUS
 62
     7
  5
179
 10
1.630207
 20
3.512209
 30
0.0
  0
VERTEX
  8
0
  6
CONTINUOUS
 62
     7
  5
17A
 10
1.625648
 20
3.526457
 30
0.0
  0
VERTEX
  8
0
  6
CONTINUOUS
 62
     7
  5
17B
 10
1.620732
 20
3.540595
 30
0.0
  0
VERTEX
  8
0
  6
CONTINUOUS
 62
     7
  5
17C
 10
1.615465
 20
3.554606
 30
0.0
  0
VERTEX
  8
0
  6
CONTINUOUS
 62
     7
  5
17D
 10
1.609854
 20
3.568473
 30
0.0
  0
VERTEX
  8
0
  6
CONTINUOUS
 62
     7
  5
17E
 10
1.603895
 20
3.582204
 30
0.0
  0
VERTEX
  8
0
  6
CONTINUOUS
 62
     7
  5
17F
 10
1.597599
 20
3.595774
 30
0.0
  0
VERTEX
  8
0
  6
CONTINUOUS
 62
     7
  5
180
 10
1.590962
 20
3.60919
 30
0.0
  0
VERTEX
  8
0
  6
CONTINUOUS
 62
     7
  5
181
 10
1.583997
 20
3.622429
 30
0.0
  0
VERTEX
  8
0
  6
CONTINUOUS
 62
     7
  5
182
 10
1.5767
 20
3.635498
 30
0.0
  0
VERTEX
  8
0
  6
CONTINUOUS
 62
     7
  5
183
 10
1.569079
 20
3.648381
 30
0.0
  0
VERTEX
  8
0
  6
CONTINUOUS
 62
     7
  5
184
 10
1.561144
 20
3.661062
 30
0.0
  0
VERTEX
  8
0
  6
CONTINUOUS
 62
     7
  5
185
 10
1.55289
 20
3.673549
 30
0.0
  0
VERTEX
  8
0
  6
CONTINUOUS
 62
     7
  5
186
 10
1.544332
 20
3.685819
 30
0.0
  0
VERTEX
  8
0
  6
CONTINUOUS
 62
     7
  5
187
 10
1.535465
 20
3.697879
 30
0.0
  0
VERTEX
  8
0
  6
CONTINUOUS
 62
     7
  5
188
 10
1.526306
 20
3.709707
 30
0.0
  0
VERTEX
  8
0
  6
CONTINUOUS
 62
     7
  5
189
 10
1.516849
 20
3.72131
 30
0.0
  0
VERTEX
  8
0
  6
CONTINUOUS
 62
     7
  5
18A
 10
1.507106
 20
3.732673
 30
0.0
  0
VERTEX
  8
0
  6
CONTINUOUS
 62
     7
  5
18B
 10
1.497088
 20
3.743783
 30
0.0
  0
VERTEX
  8
0
  6
CONTINUOUS
 62
     7
  5
18C
 10
1.48679
 20
3.754646
 30
0.0
  0
VERTEX
  8
0
  6
CONTINUOUS
 62
     7
  5
18D
 10
1.476226
 20
3.765247
 30
0.0
  0
VERTEX
  8
0
  6
CONTINUOUS
 62
     7
  5
18E
 10
1.4654
 20
3.775584
 30
0.0
  0
VERTEX
  8
0
  6
CONTINUOUS
 62
     7
  5
18F
 10
1.454326
 20
3.785642
 30
0.0
  0
VERTEX
  8
0
  6
CONTINUOUS
 62
     7
  5
190
 10
1.442997
 20
3.795426
 30
0.0
  0
VERTEX
  8
0
  6
CONTINUOUS
 62
     7
  5
191
 10
1.431428
 20
3.804924
 30
0.0
  0
VERTEX
  8
0
  6
CONTINUOUS
 62
     7
  5
192
 10
1.419633
 20
3.814125
 30
0.0
  0
VERTEX
  8
0
  6
CONTINUOUS
 62
     7
  5
193
 10
1.407605
 20
3.823035
 30
0.0
  0
VERTEX
  8
0
  6
CONTINUOUS
 62
     7
  5
194
 10
1.395366
 20
3.831637
 30
0.0
  0
VERTEX
  8
0
  6
CONTINUOUS
 62
     7
  5
195
 10
1.382909
 20
3.839935
 30
0.0
  0
VERTEX
  8
0
  6
CONTINUOUS
 62
     7
  5
196
 10
1.370256
 20
3.847916
 30
0.0
  0
VERTEX
  8
0
  6
CONTINUOUS
 62
     7
  5
197
 10
1.3574
 20
3.855583
 30
0.0
  0
VERTEX
  8
0
  6
CONTINUOUS
 62
     7
  5
198
 10
1.344357
 20
3.862927
 30
0.0
  0
VERTEX
  8
0
  6
CONTINUOUS
 62
     7
  5
199
 10
1.331143
 20
3.869939
 30
0.0
  0
VERTEX
  8
0
  6
CONTINUOUS
 62
     7
  5
19A
 10
1.31775
 20
3.876623
 30
0.0
  0
VERTEX
  8
0
  6
CONTINUOUS
 62
     7
  5
19B
 10
1.304203
 20
3.882967
 30
0.0
  0
VERTEX
  8
0
  6
CONTINUOUS
 62
     7
  5
19C
 10
1.290494
 20
3.888975
 30
0.0
  0
VERTEX
  8
0
  6
CONTINUOUS
 62
     7
  5
19D
 10
1.276647
 20
3.894636
 30
0.0
  0
VERTEX
  8
0
  6
CONTINUOUS
 62
     7
  5
19E
 10
1.262655
 20
3.899953
 30
0.0
  0
VERTEX
  8
0
  6
CONTINUOUS
 62
     7
  5
19F
 10
1.248543
 20
3.904917
 30
0.0
  0
VERTEX
  8
0
  6
CONTINUOUS
 62
     7
  5
1A0
 10
1.234303
 20
3.90953
 30
0.0
  0
VERTEX
  8
0
  6
CONTINUOUS
 62
     7
  5
1A1
 10
1.219953
 20
3.913786
 30
0.0
  0
VERTEX
  8
0
  6
CONTINUOUS
 62
     7
  5
1A2
 10
1.205509
 20
3.91768
 30
0.0
  0
VERTEX
  8
0
  6
CONTINUOUS
 62
     7
  5
1A3
 10
1.190964
 20
3.921216
 30
0.0
  0
VERTEX
  8
0
  6
CONTINUOUS
 62
     7
  5
1A4
 10
1.176345
 20
3.924385
 30
0.0
  0
VERTEX
  8
0
  6
CONTINUOUS
 62
     7
  5
1A5
 10
1.161642
 20
3.927191
 30
0.0
  0
VERTEX
  8
0
  6
CONTINUOUS
 62
     7
  5
1A6
 10
1.146882
 20
3.929628
 30
0.0
  0
VERTEX
  8
0
  6
CONTINUOUS
 62
     7
  5
1A7
 10
1.132057
 20
3.931697
 30
0.0
  0
VERTEX
  8
0
  6
CONTINUOUS
 62
     7
  5
1A8
 10
1.117186
 20
3.933396
 30
0.0
  0
VERTEX
  8
0
  6
CONTINUOUS
 62
     7
  5
1A9
 10
1.102286
 20
3.934723
 30
0.0
  0
VERTEX
  8
0
  6
CONTINUOUS
 62
     7
  5
1AA
 10
1.087347
 20
3.935678
 30
0.0
  0
VERTEX
  8
0
  6
CONTINUOUS
 62
     7
  5
1AB
 10
1.0724
 20
3.93626
 30
0.0
  0
VERTEX
  8
0
  6
CONTINUOUS
 62
     7
  5
1AC
 10
1.057433
 20
3.93647
 30
0.0
  0
VERTEX
  8
0
  6
CONTINUOUS
 62
     7
  5
1AD
 10
1.042767
 20
3.936313
 30
0.0
  0
VERTEX
  8
0
  6
CONTINUOUS
 62
     7
  5
1AE
 10
1.027808
 20
3.935783
 30
0.0
  0
VERTEX
  8
0
  6
CONTINUOUS
 62
     7
  5
1AF
 10
1.012867
 20
3.934881
 30
0.0
  0
VERTEX
  8
0
  6
CONTINUOUS
 62
     7
  5
1B0
 10
0.997962
 20
3.933607
 30
0.0
  0
VERTEX
  8
0
  6
CONTINUOUS
 62
     7
  5
1B1
 10
0.983084
 20
3.931961
 30
0.0
  0
VERTEX
  8
0
  6
CONTINUOUS
 62
     7
  5
1B2
 10
0.968261
 20
3.929945
 30
0.0
  0
VERTEX
  8
0
  6
CONTINUOUS
 62
     7
  5
1B3
 10
0.953484
 20
3.927559
 30
0.0
  0
VERTEX
  8
0
  6
CONTINUOUS
 62
     7
  5
1B4
 10
0.93878
 20
3.924808
 30
0.0
  0
VERTEX
  8
0
  6
CONTINUOUS
 62
     7
  5
1B5
 10
0.92414
 20
3.921688
 30
0.0
  0
VERTEX
  8
0
  6
CONTINUOUS
 62
     7
  5
1B6
 10
0.909583
 20
3.918204
 30
0.0
  0
VERTEX
  8
0
  6
CONTINUOUS
 62
     7
  5
1B7
 10
0.895126
 20
3.914361
 30
0.0
  0
VERTEX
  8
0
  6
CONTINUOUS
 62
     7
  5
1B8
 10
0.88076
 20
3.910155
 30
0.0
  0
VERTEX
  8
0
  6
CONTINUOUS
 62
     7
  5
1B9
 10
0.866513
 20
3.905596
 30
0.0
  0
VERTEX
  8
0
  6
CONTINUOUS
 62
     7
  5
1BA
 10
0.852375
 20
3.90068
 30
0.0
  0
VERTEX
  8
0
  6
CONTINUOUS
 62
     7
  5
1BB
 10
0.838373
 20
3.895415
 30
0.0
  0
VERTEX
  8
0
  6
CONTINUOUS
 62
     7
  5
1BC
 10
0.824498
 20
3.8898
 30
0.0
  0
VERTEX
  8
0
  6
CONTINUOUS
 62
     7
  5
1BD
 10
0.810767
 20
3.883841
 30
0.0
  0
VERTEX
  8
0
  6
CONTINUOUS
 62
     7
  5
1BE
 10
0.797197
 20
3.877544
 30
0.0
  0
VERTEX
  8
0
  6
CONTINUOUS
 62
     7
  5
1BF
 10
0.783781
 20
3.870907
 30
0.0
  0
VERTEX
  8
0
  6
CONTINUOUS
 62
     7
  5
1C0
 10
0.770542
 20
3.863942
 30
0.0
  0
VERTEX
  8
0
  6
CONTINUOUS
 62
     7
  5
1C1
 10
0.757473
 20
3.856645
 30
0.0
  0
VERTEX
  8
0
  6
CONTINUOUS
 62
     7
  5
1C2
 10
0.744517
 20
3.848971
 30
0.0
  0
SEQEND
  8
0
  6
CONTINUOUS
  5
1C3
  0
POLYLINE
  8
0
  6
CONTINUOUS
 62
     7
  5
1C4
 66
     1
 10
0.0
 20
0.0
 30
0.0
 40
0.035012
 41
0.035012
  0
VERTEX
  8
0
  6
CONTINUOUS
 62
     7
  5
1C5
 10
-2.585517
 20
1.090506
 30
0.0
  0
VERTEX
  8
0
  6
CONTINUOUS
 62
     7
  5
1C6
 10
0.799483
 20
2.566767
 30
0.0
  0
SEQEND
  8
0
  6
CONTINUOUS
  5
1C7
  0
POLYLINE
  8
0
  6
CONTINUOUS
 62
     7
  5
1C8
 66
     1
 10
0.0
 20
0.0
 30
0.0
 40
0.035012
 41
0.035012
  0
VERTEX
  8
0
  6
CONTINUOUS
 62
     7
  5
1C9
 10
0.744517
 20
3.848971
 30
0.0
  0
VERTEX
  8
0
  6
CONTINUOUS
 62
     7
  5
1CA
 10
-0.596766
 20
3.2716
 30
0.0
  0
SEQEND
  8
0
  6
CONTINUOUS
  5
1CB
  0
LINE
  8
0
  6
CONTINUOUS
 62
     7
  5
1CC
 10
-0.767477
 20
3.175788
 30
0.0
 11
-0.767476
 21
3.175788
 31
0.0
  0
ARC
  8
0
  6
CONTINUOUS
 62
     7
  5
1CD
 10
-7.62064
 20
-10.0231
 30
0.0
 40
1.500001
 50
71.716691
 51
75.558426
  0
ARC
  8
0
  6
CONTINUOUS
 62
     7
  5
1CE
 10
-1.189617
 20
4.64947
 30
0.0
 40
1.5
 50
293.280564
 51
293.290008
  0
POLYLINE
  8
0
  6
CONTINUOUS
 62
     7
  5
1CF
 66
     1
 10
0.0
 20
0.0
 30
0.0
 70
     4
 40
0.035012
 41
0.035012
 75
     5
  0
VERTEX
  8
0
  6
CONTINUOUS
 62
     7
  5
1D0
 10
-1.189617
 20
3.149471
 30
0.0
  0
VERTEX
  8
0
  6
CONTINUOUS
 62
     7
  5
1D1
 10
-1.185223
 20
3.149477
 30
0.0
  0
VERTEX
  8
0
  6
CONTINUOUS
 62
     7
  5
1D2
 10
-1.180462
 20
3.149498
 30
0.0
  0
VERTEX
  8
0
  6
CONTINUOUS
 62
     7
  5
1D3
 10
-1.175701
 20
3.149535
 30
0.0
  0
VERTEX
  8
0
  6
CONTINUOUS
 62
     7
  5
1D4
 10
-1.170941
 20
3.149587
 30
0.0
  0
VERTEX
  8
0
  6
CONTINUOUS
 62
     7
  5
1D5
 10
-1.166181
 20
3.149653
 30
0.0
  0
VERTEX
  8
0
  6
CONTINUOUS
 62
     7
  5
1D6
 10
-1.161421
 20
3.149735
 30
0.0
  0
VERTEX
  8
0
  6
CONTINUOUS
 62
     7
  5
1D7
 10
-1.156638
 20
3.149833
 30
0.0
  0
VERTEX
  8
0
  6
CONTINUOUS
 62
     7
  5
1D8
 10
-1.151878
 20
3.149945
 30
0.0
  0
VERTEX
  8
0
  6
CONTINUOUS
 62
     7
  5
1D9
 10
-1.147119
 20
3.150072
 30
0.0
  0
VERTEX
  8
0
  6
CONTINUOUS
 62
     7
  5
1DA
 10
-1.142361
 20
3.150215
 30
0.0
  0
VERTEX
  8
0
  6
CONTINUOUS
 62
     7
  5
1DB
 10
-1.137603
 20
3.150372
 30
0.0
  0
VERTEX
  8
0
  6
CONTINUOUS
 62
     7
  5
1DC
 10
-1.132845
 20
3.150545
 30
0.0
  0
VERTEX
  8
0
  6
CONTINUOUS
 62
     7
  5
1DD
 10
-1.128088
 20
3.150733
 30
0.0
  0
VERTEX
  8
0
  6
CONTINUOUS
 62
     7
  5
1DE
 10
-1.123332
 20
3.150936
 30
0.0
  0
VERTEX
  8
0
  6
CONTINUOUS
 62
     7
  5
1DF
 10
-1.118576
 20
3.151153
 30
0.0
  0
VERTEX
  8
0
  6
CONTINUOUS
 62
     7
  5
1E0
 10
-1.113821
 20
3.151386
 30
0.0
  0
VERTEX
  8
0
  6
CONTINUOUS
 62
     7
  5
1E1
 10
-1.109067
 20
3.151634
 30
0.0
  0
VERTEX
  8
0
  6
CONTINUOUS
 62
     7
  5
1E2
 10
-1.104313
 20
3.151898
 30
0.0
  0
VERTEX
  8
0
  6
CONTINUOUS
 62
     7
  5
1E3
 10
-1.09956
 20
3.152176
 30
0.0
  0
VERTEX
  8
0
  6
CONTINUOUS
 62
     7
  5
1E4
 10
-1.094786
 20
3.152471
 30
0.0
  0
VERTEX
  8
0
  6
CONTINUOUS
 62
     7
  5
1E5
 10
-1.090035
 20
3.152779
 30
0.0
  0
VERTEX
  8
0
  6
CONTINUOUS
 62
     7
  5
1E6
 10
-1.085285
 20
3.153103
 30
0.0
  0
VERTEX
  8
0
  6
CONTINUOUS
 62
     7
  5
1E7
 10
-1.080537
 20
3.153441
 30
0.0
  0
VERTEX
  8
0
  6
CONTINUOUS
 62
     7
  5
1E8
 10
-1.075789
 20
3.153795
 30
0.0
  0
VERTEX
  8
0
  6
CONTINUOUS
 62
     7
  5
1E9
 10
-1.071043
 20
3.154164
 30
0.0
  0
VERTEX
  8
0
  6
CONTINUOUS
 62
     7
  5
1EA
 10
-1.066297
 20
3.154547
 30
0.0
  0
VERTEX
  8
0
  6
CONTINUOUS
 62
     7
  5
1EB
 10
-1.061554
 20
3.154946
 30
0.0
  0
VERTEX
  8
0
  6
CONTINUOUS
 62
     7
  5
1EC
 10
-1.056811
 20
3.15536
 30
0.0
  0
VERTEX
  8
0
  6
CONTINUOUS
 62
     7
  5
1ED
 10
-1.05207
 20
3.155789
 30
0.0
  0
VERTEX
  8
0
  6
CONTINUOUS
 62
     7
  5
1EE
 10
-1.04733
 20
3.156233
 30
0.0
  0
VERTEX
  8
0
  6
CONTINUOUS
 62
     7
  5
1EF
 10
-1.042591
 20
3.156692
 30
0.0
  0
VERTEX
  8
0
  6
CONTINUOUS
 62
     7
  5
1F0
 10
-1.037854
 20
3.157166
 30
0.0
  0
VERTEX
  8
0
  6
CONTINUOUS
 62
     7
  5
1F1
 10
-1.033096
 20
3.157658
 30
0.0
  0
VERTEX
  8
0
  6
CONTINUOUS
 62
     7
  5
1F2
 10
-1.028362
 20
3.158162
 30
0.0
  0
VERTEX
  8
0
  6
CONTINUOUS
 62
     7
  5
1F3
 10
-1.023629
 20
3.158681
 30
0.0
  0
VERTEX
  8
0
  6
CONTINUOUS
 62
     7
  5
1F4
 10
-1.018899
 20
3.159215
 30
0.0
  0
VERTEX
  8
0
  6
CONTINUOUS
 62
     7
  5
1F5
 10
-1.01417
 20
3.159765
 30
0.0
  0
VERTEX
  8
0
  6
CONTINUOUS
 62
     7
  5
1F6
 10
-1.009443
 20
3.160329
 30
0.0
  0
VERTEX
  8
0
  6
CONTINUOUS
 62
     7
  5
1F7
 10
-1.004717
 20
3.160908
 30
0.0
  0
VERTEX
  8
0
  6
CONTINUOUS
 62
     7
  5
1F8
 10
-0.999994
 20
3.161502
 30
0.0
  0
VERTEX
  8
0
  6
CONTINUOUS
 62
     7
  5
1F9
 10
-0.995272
 20
3.162112
 30
0.0
  0
VERTEX
  8
0
  6
CONTINUOUS
 62
     7
  5
1FA
 10
-0.990552
 20
3.162736
 30
0.0
  0
VERTEX
  8
0
  6
CONTINUOUS
 62
     7
  5
1FB
 10
-0.985835
 20
3.163375
 30
0.0
  0
VERTEX
  8
0
  6
CONTINUOUS
 62
     7
  5
1FC
 10
-0.981119
 20
3.164029
 30
0.0
  0
VERTEX
  8
0
  6
CONTINUOUS
 62
     7
  5
1FD
 10
-0.976406
 20
3.164698
 30
0.0
  0
VERTEX
  8
0
  6
CONTINUOUS
 62
     7
  5
1FE
 10
-0.971672
 20
3.165386
 30
0.0
  0
VERTEX
  8
0
  6
CONTINUOUS
 62
     7
  5
1FF
 10
-0.966963
 20
3.166085
 30
0.0
  0
VERTEX
  8
0
  6
CONTINUOUS
 62
     7
  5
200
 10
-0.962256
 20
3.166799
 30
0.0
  0
VERTEX
  8
0
  6
CONTINUOUS
 62
     7
  5
201
 10
-0.957551
 20
3.167528
 30
0.0
  0
VERTEX
  8
0
  6
CONTINUOUS
 62
     7
  5
202
 10
-0.952849
 20
3.168272
 30
0.0
  0
VERTEX
  8
0
  6
CONTINUOUS
 62
     7
  5
203
 10
-0.948149
 20
3.16903
 30
0.0
  0
VERTEX
  8
0
  6
CONTINUOUS
 62
     7
  5
204
 10
-0.943452
 20
3.169804
 30
0.0
  0
VERTEX
  8
0
  6
CONTINUOUS
 62
     7
  5
205
 10
-0.938757
 20
3.170593
 30
0.0
  0
VERTEX
  8
0
  6
CONTINUOUS
 62
     7
  5
206
 10
-0.934064
 20
3.171396
 30
0.0
  0
VERTEX
  8
0
  6
CONTINUOUS
 62
     7
  5
207
 10
-0.929374
 20
3.172215
 30
0.0
  0
VERTEX
  8
0
  6
CONTINUOUS
 62
     7
  5
208
 10
-0.924687
 20
3.173048
 30
0.0
  0
VERTEX
  8
0
  6
CONTINUOUS
 62
     7
  5
209
 10
-0.920003
 20
3.173896
 30
0.0
  0
VERTEX
  8
0
  6
CONTINUOUS
 62
     7
  5
20A
 10
-0.915321
 20
3.174759
 30
0.0
  0
VERTEX
  8
0
  6
CONTINUOUS
 62
     7
  5
20B
 10
-0.910642
 20
3.175637
 30
0.0
  0
VERTEX
  8
0
  6
CONTINUOUS
 62
     7
  5
20C
 10
-0.905943
 20
3.176534
 30
0.0
  0
VERTEX
  8
0
  6
CONTINUOUS
 62
     7
  5
20D
 10
-0.90127
 20
3.177442
 30
0.0
  0
VERTEX
  8
0
  6
CONTINUOUS
 62
     7
  5
20E
 10
-0.896599
 20
3.178364
 30
0.0
  0
VERTEX
  8
0
  6
CONTINUOUS
 62
     7
  5
20F
 10
-0.891932
 20
3.179301
 30
0.0
  0
VERTEX
  8
0
  6
CONTINUOUS
 62
     7
  5
210
 10
-0.887267
 20
3.180253
 30
0.0
  0
VERTEX
  8
0
  6
CONTINUOUS
 62
     7
  5
211
 10
-0.882606
 20
3.18122
 30
0.0
  0
VERTEX
  8
0
  6
CONTINUOUS
 62
     7
  5
212
 10
-0.877947
 20
3.182202
 30
0.0
  0
VERTEX
  8
0
  6
CONTINUOUS
 62
     7
  5
213
 10
-0.873292
 20
3.183198
 30
0.0
  0
VERTEX
  8
0
  6
CONTINUOUS
 62
     7
  5
214
 10
-0.86864
 20
3.184209
 30
0.0
  0
VERTEX
  8
0
  6
CONTINUOUS
 62
     7
  5
215
 10
-0.863991
 20
3.185235
 30
0.0
  0
VERTEX
  8
0
  6
CONTINUOUS
 62
     7
  5
216
 10
-0.859345
 20
3.186276
 30
0.0
  0
VERTEX
  8
0
  6
CONTINUOUS
 62
     7
  5
217
 10
-0.854703
 20
3.187332
 30
0.0
  0
VERTEX
  8
0
  6
CONTINUOUS
 62
     7
  5
218
 10
-0.850064
 20
3.188402
 30
0.0
  0
VERTEX
  8
0
  6
CONTINUOUS
 62
     7
  5
219
 10
-0.845407
 20
3.189492
 30
0.0
  0
VERTEX
  8
0
  6
CONTINUOUS
 62
     7
  5
21A
 10
-0.840775
 20
3.190592
 30
0.0
  0
VERTEX
  8
0
  6
CONTINUOUS
 62
     7
  5
21B
 10
-0.836146
 20
3.191706
 30
0.0
  0
VERTEX
  8
0
  6
CONTINUOUS
 62
     7
  5
21C
 10
-0.831521
 20
3.192835
 30
0.0
  0
VERTEX
  8
0
  6
CONTINUOUS
 62
     7
  5
21D
 10
-0.8269
 20
3.193979
 30
0.0
  0
VERTEX
  8
0
  6
CONTINUOUS
 62
     7
  5
21E
 10
-0.822282
 20
3.195137
 30
0.0
  0
VERTEX
  8
0
  6
CONTINUOUS
 62
     7
  5
21F
 10
-0.817669
 20
3.19631
 30
0.0
  0
VERTEX
  8
0
  6
CONTINUOUS
 62
     7
  5
220
 10
-0.813058
 20
3.197498
 30
0.0
  0
VERTEX
  8
0
  6
CONTINUOUS
 62
     7
  5
221
 10
-0.808452
 20
3.1987
 30
0.0
  0
VERTEX
  8
0
  6
CONTINUOUS
 62
     7
  5
222
 10
-0.803849
 20
3.199917
 30
0.0
  0
VERTEX
  8
0
  6
CONTINUOUS
 62
     7
  5
223
 10
-0.799251
 20
3.201148
 30
0.0
  0
VERTEX
  8
0
  6
CONTINUOUS
 62
     7
  5
224
 10
-0.794656
 20
3.202394
 30
0.0
  0
VERTEX
  8
0
  6
CONTINUOUS
 62
     7
  5
225
 10
-0.790065
 20
3.203655
 30
0.0
  0
VERTEX
  8
0
  6
CONTINUOUS
 62
     7
  5
226
 10
-0.785457
 20
3.204937
 30
0.0
  0
VERTEX
  8
0
  6
CONTINUOUS
 62
     7
  5
227
 10
-0.780874
 20
3.206226
 30
0.0
  0
VERTEX
  8
0
  6
CONTINUOUS
 62
     7
  5
228
 10
-0.776295
 20
3.207531
 30
0.0
  0
VERTEX
  8
0
  6
CONTINUOUS
 62
     7
  5
229
 10
-0.771721
 20
3.20885
 30
0.0
  0
VERTEX
  8
0
  6
CONTINUOUS
 62
     7
  5
22A
 10
-0.767151
 20
3.210183
 30
0.0
  0
VERTEX
  8
0
  6
CONTINUOUS
 62
     7
  5
22B
 10
-0.762585
 20
3.211531
 30
0.0
  0
VERTEX
  8
0
  6
CONTINUOUS
 62
     7
  5
22C
 10
-0.758023
 20
3.212893
 30
0.0
  0
VERTEX
  8
0
  6
CONTINUOUS
 62
     7
  5
22D
 10
-0.753466
 20
3.21427
 30
0.0
  0
VERTEX
  8
0
  6
CONTINUOUS
 62
     7
  5
22E
 10
-0.748913
 20
3.215662
 30
0.0
  0
VERTEX
  8
0
  6
CONTINUOUS
 62
     7
  5
22F
 10
-0.744365
 20
3.217067
 30
0.0
  0
VERTEX
  8
0
  6
CONTINUOUS
 62
     7
  5
230
 10
-0.739821
 20
3.218488
 30
0.0
  0
VERTEX
  8
0
  6
CONTINUOUS
 62
     7
  5
231
 10
-0.735282
 20
3.219922
 30
0.0
  0
VERTEX
  8
0
  6
CONTINUOUS
 62
     7
  5
232
 10
-0.730747
 20
3.221371
 30
0.0
  0
VERTEX
  8
0
  6
CONTINUOUS
 62
     7
  5
233
 10
-0.726195
 20
3.222842
 30
0.0
  0
VERTEX
  8
0
  6
CONTINUOUS
 62
     7
  5
234
 10
-0.721669
 20
3.22432
 30
0.0
  0
VERTEX
  8
0
  6
CONTINUOUS
 62
     7
  5
235
 10
-0.717148
 20
3.225812
 30
0.0
  0
VERTEX
  8
0
  6
CONTINUOUS
 62
     7
  5
236
 10
-0.712633
 20
3.227318
 30
0.0
  0
VERTEX
  8
0
  6
CONTINUOUS
 62
     7
  5
237
 10
-0.708121
 20
3.228839
 30
0.0
  0
VERTEX
  8
0
  6
CONTINUOUS
 62
     7
  5
238
 10
-0.703615
 20
3.230374
 30
0.0
  0
VERTEX
  8
0
  6
CONTINUOUS
 62
     7
  5
239
 10
-0.699113
 20
3.231924
 30
0.0
  0
VERTEX
  8
0
  6
CONTINUOUS
 62
     7
  5
23A
 10
-0.694617
 20
3.233487
 30
0.0
  0
VERTEX
  8
0
  6
CONTINUOUS
 62
     7
  5
23B
 10
-0.690125
 20
3.235066
 30
0.0
  0
VERTEX
  8
0
  6
CONTINUOUS
 62
     7
  5
23C
 10
-0.685639
 20
3.236658
 30
0.0
  0
VERTEX
  8
0
  6
CONTINUOUS
 62
     7
  5
23D
 10
-0.681157
 20
3.238264
 30
0.0
  0
VERTEX
  8
0
  6
CONTINUOUS
 62
     7
  5
23E
 10
-0.676681
 20
3.239885
 30
0.0
  0
VERTEX
  8
0
  6
CONTINUOUS
 62
     7
  5
23F
 10
-0.67221
 20
3.24152
 30
0.0
  0
VERTEX
  8
0
  6
CONTINUOUS
 62
     7
  5
240
 10
-0.667723
 20
3.243177
 30
0.0
  0
VERTEX
  8
0
  6
CONTINUOUS
 62
     7
  5
241
 10
-0.663262
 20
3.24484
 30
0.0
  0
VERTEX
  8
0
  6
CONTINUOUS
 62
     7
  5
242
 10
-0.658806
 20
3.246518
 30
0.0
  0
VERTEX
  8
0
  6
CONTINUOUS
 62
     7
  5
243
 10
-0.654357
 20
3.248209
 30
0.0
  0
VERTEX
  8
0
  6
CONTINUOUS
 62
     7
  5
244
 10
-0.649912
 20
3.249915
 30
0.0
  0
VERTEX
  8
0
  6
CONTINUOUS
 62
     7
  5
245
 10
-0.645473
 20
3.251635
 30
0.0
  0
VERTEX
  8
0
  6
CONTINUOUS
 62
     7
  5
246
 10
-0.641039
 20
3.253369
 30
0.0
  0
VERTEX
  8
0
  6
CONTINUOUS
 62
     7
  5
247
 10
-0.636611
 20
3.255117
 30
0.0
  0
VERTEX
  8
0
  6
CONTINUOUS
 62
     7
  5
248
 10
-0.632188
 20
3.256879
 30
0.0
  0
VERTEX
  8
0
  6
CONTINUOUS
 62
     7
  5
249
 10
-0.627771
 20
3.258655
 30
0.0
  0
VERTEX
  8
0
  6
CONTINUOUS
 62
     7
  5
24A
 10
-0.62336
 20
3.260445
 30
0.0
  0
VERTEX
  8
0
  6
CONTINUOUS
 62
     7
  5
24B
 10
-0.618954
 20
3.262249
 30
0.0
  0
VERTEX
  8
0
  6
CONTINUOUS
 62
     7
  5
24C
 10
-0.614554
 20
3.264067
 30
0.0
  0
VERTEX
  8
0
  6
CONTINUOUS
 62
     7
  5
24D
 10
-0.610139
 20
3.265908
 30
0.0
  0
VERTEX
  8
0
  6
CONTINUOUS
 62
     7
  5
24E
 10
-0.605751
 20
3.267754
 30
0.0
  0
VERTEX
  8
0
  6
CONTINUOUS
 62
     7
  5
24F
 10
-0.601369
 20
3.269614
 30
0.0
  0
VERTEX
  8
0
  6
CONTINUOUS
 62
     7
  5
250
 10
-0.596766
 20
3.2716
 30
0.0
  0
SEQEND
  8
0
  6
CONTINUOUS
  5
251
  0
POLYLINE
  8
0
  6
CONTINUOUS
 62
     7
  5
252
 66
     1
 10
0.0
 20
0.0
 30
0.0
 70
     1
  0
VERTEX
  8
0
  6
CONTINUOUS
 62
     7
  5
253
 10
1.800517
 20
3.59147
 30
0.0
  0
VERTEX
  8
0
  6
CONTINUOUS
 62
     7
  5
254
 10
1.675517
 20
3.59147
 30
0.0
  0
VERTEX
  8
0
  6
CONTINUOUS
 62
     7
  5
255
 10
1.675517
 20
3.09147
 30
0.0
  0
VERTEX
  8
0
  6
CONTINUOUS
 62
     7
  5
256
 10
1.800517
 20
3.09147
 30
0.0
  0
SEQEND
  8
0
  6
CONTINUOUS
  5
257
  0
POLYLINE
  8
0
  6
CONTINUOUS
 62
     7
  5
258
 66
     1
 10
0.0
 20
0.0
 30
0.0
 70
     1
  0
VERTEX
  8
0
  6
CONTINUOUS
 62
     7
  5
259
 10
1.925517
 20
3.46647
 30
0.0
  0
VERTEX
  8
0
  6
CONTINUOUS
 62
     7
  5
25A
 10
1.800517
 20
3.46647
 30
0.0
  0
VERTEX
  8
0
  6
CONTINUOUS
 62
     7
  5
25B
 10
1.800517
 20
3.249964
 30
0.0
  0
VERTEX
  8
0
  6
CONTINUOUS
 62
     7
  5
25C
 10
1.925517
 20
3.249964
 30
0.0
  0
SEQEND
  8
0
  6
CONTINUOUS
  5
25D
  0
LINE
  8
0
  6
CONTINUOUS
 62
     7
  5
25E
 10
1.975517
 20
3.166471
 30
0.0
 11
2.000517
 21
3.166471
 31
0.0
  0
LINE
  8
0
  6
CONTINUOUS
 62
     7
  5
25F
 10
1.925517
 20
3.491471
 30
0.0
 11
1.925517
 21
3.21647
 31
0.0
  0
LINE
  8
0
  6
CONTINUOUS
 62
     7
  5
260
 10
2.000517
 20
3.541471
 30
0.0
 11
1.975517
 21
3.541471
 31
0.0
  0
LINE
  8
0
  6
CONTINUOUS
 62
     7
  5
261
 10
1.675517
 20
3.541471
 30
0.0
 11
1.609834
 21
3.541471
 31
0.0
  0
LINE
  8
0
  6
CONTINUOUS
 62
     7
  5
262
 10
1.675517
 20
3.166471
 30
0.0
 11
1.618153
 21
3.166471
 31
0.0
  0
LINE
  8
0
  6
CONTINUOUS
 62
     7
  5
263
 10
2.175517
 20
3.46647
 30
0.0
 11
2.175517
 21
3.249964
 31
0.0
  0
LINE
  8
0
  6
CONTINUOUS
 62
     7
  5
264
 10
2.175517
 20
3.46647
 30
0.0
 11
2.000517
 21
3.541471
 31
0.0
  0
LINE
  8
0
  6
CONTINUOUS
 62
     7
  5
265
 10
2.175517
 20
3.249964
 30
0.0
 11
2.000517
 21
3.166471
 31
0.0
  0
LINE
  8
0
  6
MCDASH01
 62
     7
  5
266
 10
1.250517
 20
3.71647
 30
0.0
 11
1.250517
 21
2.96647
 31
0.0
  0
LINE
  8
0
  6
MCDASH01
 62
     7
  5
267
 10
0.850517
 20
3.71647
 30
0.0
 11
0.850517
 21
2.96647
 31
0.0
  0
LINE
  8
0
  6
MCDASH01
 62
     7
  5
268
 10
1.609834
 20
3.541471
 30
0.0
 11
1.425517
 21
3.541471
 31
0.0
  0
LINE
  8
0
  6
MCDASH01
 62
     7
  5
269
 10
1.425517
 20
3.541471
 30
0.0
 11
1.425517
 21
3.166471
 31
0.0
  0
LINE
  8
0
  6
MCDASH01
 62
     7
  5
26A
 10
1.425517
 20
3.46647
 30
0.0
 11
1.250517
 21
3.46647
 31
0.0
  0
LINE
  8
0
  6
MCDASH01
 62
     7
  5
26B
 10
1.618153
 20
3.166471
 30
0.0
 11
1.425517
 21
3.166471
 31
0.0
  0
LINE
  8
0
  6
MCDASH01
 62
     7
  5
26C
 10
1.425517
 20
3.249964
 30
0.0
 11
1.250517
 21
3.249964
 31
0.0
  0
POLYLINE
  8
0
  6
CONTINUOUS
 62
     7
  5
26D
 66
     1
 10
0.0
 20
0.0
 30
0.0
 40
0.035012
 41
0.035012
  0
VERTEX
  8
0
  6
CONTINUOUS
 62
     7
  5
26E
 10
0.591382
 20
3.71835
 30
0.0
  0
VERTEX
  8
0
  6
CONTINUOUS
 62
     7
  5
26F
 10
1.509652
 20
3.71835
 30
0.0
  0
SEQEND
  8
0
  6
CONTINUOUS
  5
270
  0
POLYLINE
  8
0
  6
CONTINUOUS
 62
     7
  5
271
 66
     1
 10
0.0
 20
0.0
 30
0.0
 40
0.035012
 41
0.035012
  0
VERTEX
  8
0
  6
CONTINUOUS
 62
     7
  5
272
 10
0.573442
 20
2.987573
 30
0.0
  0
VERTEX
  8
0
  6
CONTINUOUS
 62
     7
  5
273
 10
1.527592
 20
2.987573
 30
0.0
  0
SEQEND
  8
0
  6
CONTINUOUS
  5
274
  0
ARC
  8
0
  6
CONTINUOUS
 62
     7
  5
275
 10
1.975517
 20
3.491471
 30
0.0
 40
0.05
 50
90.0
 51
180.0
  0
ARC
  8
0
  6
CONTINUOUS
 62
     7
  5
276
 10
1.975517
 20
3.21647
 30
0.0
 40
0.05
 50
180.0
 51
270.0
  0
POLYLINE
  8
0
  6
CONTINUOUS
 62
     7
  5
277
 66
     1
 10
0.0
 20
0.0
 30
0.0
 40
0.035012
 41
0.035012
  0
VERTEX
  8
0
  6
CONTINUOUS
 62
     7
  5
278
 10
-4.880483
 20
0.086471
 30
0.0
  0
VERTEX
  8
0
  6
CONTINUOUS
 62
     7
  5
279
 10
-4.235517
 20
0.36864
 30
0.0
  0
SEQEND
  8
0
  6
CONTINUOUS
  5
27A
  0
POLYLINE
  8
0
  6
CONTINUOUS
 62
     7
  5
27B
 66
     1
 10
0.0
 20
0.0
 30
0.0
 40
0.035012
 41
0.035012
  0
VERTEX
  8
0
  6
CONTINUOUS
 62
     7
  5
27C
 10
-4.880483
 20
0.086471
 30
0.0
  0
VERTEX
  8
0
  6
CONTINUOUS
 62
     7
  5
27D
 10
-5.055517
 20
0.086471
 30
0.0
  0
SEQEND
  8
0
  6
CONTINUOUS
  5
27E
  0
POLYLINE
  8
0
  6
CONTINUOUS
 62
     7
  5
27F
 66
     1
 10
0.0
 20
0.0
 30
0.0
 70
     4
 40
0.035012
 41
0.035012
 75
     5
  0
VERTEX
  8
0
  6
CONTINUOUS
 62
     7
  5
280
 10
1.312226
 20
2.806531
 30
0.0
  0
VERTEX
  8
0
  6
CONTINUOUS
 62
     7
  5
281
 10
1.334339
 20
2.818281
 30
0.0
  0
VERTEX
  8
0
  6
CONTINUOUS
 62
     7
  5
282
 10
1.356019
 20
2.83101
 30
0.0
  0
VERTEX
  8
0
  6
CONTINUOUS
 62
     7
  5
283
 10
1.377148
 20
2.844651
 30
0.0
  0
VERTEX
  8
0
  6
CONTINUOUS
 62
     7
  5
284
 10
1.397674
 20
2.859169
 30
0.0
  0
VERTEX
  8
0
  6
CONTINUOUS
 62
     7
  5
285
 10
1.417574
 20
2.874548
 30
0.0
  0
VERTEX
  8
0
  6
CONTINUOUS
 62
     7
  5
286
 10
1.436798
 20
2.89075
 30
0.0
  0
VERTEX
  8
0
  6
CONTINUOUS
 62
     7
  5
287
 10
1.455326
 20
2.907757
 30
0.0
  0
VERTEX
  8
0
  6
CONTINUOUS
 62
     7
  5
288
 10
1.473116
 20
2.925531
 30
0.0
  0
VERTEX
  8
0
  6
CONTINUOUS
 62
     7
  5
289
 10
1.490141
 20
2.944043
 30
0.0
  0
VERTEX
  8
0
  6
CONTINUOUS
 62
     7
  5
28A
 10
1.506366
 20
2.96326
 30
0.0
  0
VERTEX
  8
0
  6
CONTINUOUS
 62
     7
  5
28B
 10
1.521757
 20
2.983139
 30
0.0
  0
VERTEX
  8
0
  6
CONTINUOUS
 62
     7
  5
28C
 10
1.536299
 20
3.003659
 30
0.0
  0
VERTEX
  8
0
  6
CONTINUOUS
 62
     7
  5
28D
 10
1.549954
 20
3.024768
 30
0.0
  0
VERTEX
  8
0
  6
CONTINUOUS
 62
     7
  5
28E
 10
1.562707
 20
3.046444
 30
0.0
  0
VERTEX
  8
0
  6
CONTINUOUS
 62
     7
  5
28F
 10
1.574528
 20
3.068633
 30
0.0
  0
VERTEX
  8
0
  6
CONTINUOUS
 62
     7
  5
290
 10
1.585402
 20
3.09131
 30
0.0
  0
VERTEX
  8
0
  6
CONTINUOUS
 62
     7
  5
291
 10
1.595304
 20
3.114419
 30
0.0
  0
VERTEX
  8
0
  6
CONTINUOUS
 62
     7
  5
292
 10
1.604221
 20
3.137934
 30
0.0
  0
VERTEX
  8
0
  6
CONTINUOUS
 62
     7
  5
293
 10
1.612133
 20
3.161798
 30
0.0
  0
VERTEX
  8
0
  6
CONTINUOUS
 62
     7
  5
294
 10
1.619029
 20
3.185983
 30
0.0
  0
VERTEX
  8
0
  6
CONTINUOUS
 62
     7
  5
295
 10
1.624894
 20
3.21043
 30
0.0
  0
VERTEX
  8
0
  6
CONTINUOUS
 62
     7
  5
296
 10
1.629721
 20
3.235112
 30
0.0
  0
VERTEX
  8
0
  6
CONTINUOUS
 62
     7
  5
297
 10
1.633498
 20
3.259968
 30
0.0
  0
VERTEX
  8
0
  6
CONTINUOUS
 62
     7
  5
298
 10
1.636221
 20
3.28497
 30
0.0
  0
VERTEX
  8
0
  6
CONTINUOUS
 62
     7
  5
299
 10
1.637882
 20
3.310056
 30
0.0
  0
VERTEX
  8
0
  6
CONTINUOUS
 62
     7
  5
29A
 10
1.638481
 20
3.335199
 30
0.0
  0
VERTEX
  8
0
  6
CONTINUOUS
 62
     7
  5
29B
 10
1.638015
 20
3.360335
 30
0.0
  0
VERTEX
  8
0
  6
CONTINUOUS
 62
     7
  5
29C
 10
1.636486
 20
3.385439
 30
0.0
  0
VERTEX
  8
0
  6
CONTINUOUS
 62
     7
  5
29D
 10
1.633897
 20
3.410446
 30
0.0
  0
VERTEX
  8
0
  6
CONTINUOUS
 62
     7
  5
29E
 10
1.63025
 20
3.43533
 30
0.0
  0
VERTEX
  8
0
  6
CONTINUOUS
 62
     7
  5
29F
 10
1.625555
 20
3.460028
 30
0.0
  0
VERTEX
  8
0
  6
CONTINUOUS
 62
     7
  5
2A0
 10
1.619817
 20
3.484515
 30
0.0
  0
VERTEX
  8
0
  6
CONTINUOUS
 62
     7
  5
2A1
 10
1.613051
 20
3.508728
 30
0.0
  0
VERTEX
  8
0
  6
CONTINUOUS
 62
     7
  5
2A2
 10
1.605263
 20
3.532641
 30
0.0
  0
VERTEX
  8
0
  6
CONTINUOUS
 62
     7
  5
2A3
 10
1.596473
 20
3.556195
 30
0.0
  0
VERTEX
  8
0
  6
CONTINUOUS
 62
     7
  5
2A4
 10
1.586691
 20
3.579364
 30
0.0
  0
VERTEX
  8
0
  6
CONTINUOUS
 62
     7
  5
2A5
 10
1.57594
 20
3.602091
 30
0.0
  0
VERTEX
  8
0
  6
CONTINUOUS
 62
     7
  5
2A6
 10
1.564233
 20
3.624349
 30
0.0
  0
VERTEX
  8
0
  6
CONTINUOUS
 62
     7
  5
2A7
 10
1.551599
 20
3.646085
 30
0.0
  0
VERTEX
  8
0
  6
CONTINUOUS
 62
     7
  5
2A8
 10
1.538051
 20
3.667273
 30
0.0
  0
VERTEX
  8
0
  6
CONTINUOUS
 62
     7
  5
2A9
 10
1.523623
 20
3.687863
 30
0.0
  0
VERTEX
  8
0
  6
CONTINUOUS
 62
     7
  5
2AA
 10
1.508331
 20
3.70783
 30
0.0
  0
VERTEX
  8
0
  6
CONTINUOUS
 62
     7
  5
2AB
 10
1.492214
 20
3.727125
 30
0.0
  0
VERTEX
  8
0
  6
CONTINUOUS
 62
     7
  5
2AC
 10
1.475288
 20
3.745727
 30
0.0
  0
VERTEX
  8
0
  6
CONTINUOUS
 62
     7
  5
2AD
 10
1.457592
 20
3.763595
 30
0.0
  0
VERTEX
  8
0
  6
CONTINUOUS
 62
     7
  5
2AE
 10
1.439154
 20
3.7807
 30
0.0
  0
VERTEX
  8
0
  6
CONTINUOUS
 62
     7
  5
2AF
 10
1.420016
 20
3.797004
 30
0.0
  0
VERTEX
  8
0
  6
CONTINUOUS
 62
     7
  5
2B0
 10
1.400197
 20
3.812488
 30
0.0
  0
VERTEX
  8
0
  6
CONTINUOUS
 62
     7
  5
2B1
 10
1.379749
 20
3.827114
 30
0.0
  0
VERTEX
  8
0
  6
CONTINUOUS
 62
     7
  5
2B2
 10
1.358692
 20
3.840867
 30
0.0
  0
VERTEX
  8
0
  6
CONTINUOUS
 62
     7
  5
2B3
 10
1.33708
 20
3.853711
 30
0.0
  0
VERTEX
  8
0
  6
CONTINUOUS
 62
     7
  5
2B4
 10
1.314936
 20
3.865632
 30
0.0
  0
VERTEX
  8
0
  6
CONTINUOUS
 62
     7
  5
2B5
 10
1.292314
 20
3.876602
 30
0.0
  0
VERTEX
  8
0
  6
CONTINUOUS
 62
     7
  5
2B6
 10
1.269241
 20
3.886609
 30
0.0
  0
VERTEX
  8
0
  6
CONTINUOUS
 62
     7
  5
2B7
 10
1.245773
 20
3.895626
 30
0.0
  0
VERTEX
  8
0
  6
CONTINUOUS
 62
     7
  5
2B8
 10
1.221936
 20
3.903645
 30
0.0
  0
VERTEX
  8
0
  6
CONTINUOUS
 62
     7
  5
2B9
 10
1.19779
 20
3.910645
 30
0.0
  0
VERTEX
  8
0
  6
CONTINUOUS
 62
     7
  5
2BA
 10
1.17336
 20
3.91662
 30
0.0
  0
VERTEX
  8
0
  6
CONTINUOUS
 62
     7
  5
2BB
 10
1.148708
 20
3.921553
 30
0.0
  0
VERTEX
  8
0
  6
CONTINUOUS
 62
     7
  5
2BC
 10
1.12386
 20
3.92544
 30
0.0
  0
VERTEX
  8
0
  6
CONTINUOUS
 62
     7
  5
2BD
 10
1.09888
 20
3.928271
 30
0.0
  0
VERTEX
  8
0
  6
CONTINUOUS
 62
     7
  5
2BE
 10
1.073792
 20
3.930043
 30
0.0
  0
VERTEX
  8
0
  6
CONTINUOUS
 62
     7
  5
2BF
 10
1.048661
 20
3.930752
 30
0.0
  0
VERTEX
  8
0
  6
CONTINUOUS
 62
     7
  5
2C0
 10
1.023804
 20
3.930407
 30
0.0
  0
VERTEX
  8
0
  6
CONTINUOUS
 62
     7
  5
2C1
 10
0.998702
 20
3.929
 30
0.0
  0
VERTEX
  8
0
  6
CONTINUOUS
 62
     7
  5
2C2
 10
0.973674
 20
3.926532
 30
0.0
  0
VERTEX
  8
0
  6
CONTINUOUS
 62
     7
  5
2C3
 10
0.948781
 20
3.923008
 30
0.0
  0
VERTEX
  8
0
  6
CONTINUOUS
 62
     7
  5
2C4
 10
0.924051
 20
3.918432
 30
0.0
  0
VERTEX
  8
0
  6
CONTINUOUS
 62
     7
  5
2C5
 10
0.899546
 20
3.912816
 30
0.0
  0
VERTEX
  8
0
  6
CONTINUOUS
 62
     7
  5
2C6
 10
0.875291
 20
3.906165
 30
0.0
  0
VERTEX
  8
0
  6
CONTINUOUS
 62
     7
  5
2C7
 10
0.851349
 20
3.898496
 30
0.0
  0
VERTEX
  8
0
  6
CONTINUOUS
 62
     7
  5
2C8
 10
0.827744
 20
3.889818
 30
0.0
  0
VERTEX
  8
0
  6
CONTINUOUS
 62
     7
  5
2C9
 10
0.804536
 20
3.880152
 30
0.0
  0
VERTEX
  8
0
  6
CONTINUOUS
 62
     7
  5
2CA
 10
0.781749
 20
3.869509
 30
0.0
  0
VERTEX
  8
0
  6
CONTINUOUS
 62
     7
  5
2CB
 10
0.759442
 20
3.857915
 30
0.0
  0
VERTEX
  8
0
  6
CONTINUOUS
 62
     7
  5
2CC
 10
0.737637
 20
3.845382
 30
0.0
  0
VERTEX
  8
0
  6
CONTINUOUS
 62
     7
  5
2CD
 10
0.71639
 20
3.831942
 30
0.0
  0
VERTEX
  8
0
  6
CONTINUOUS
 62
     7
  5
2CE
 10
0.695724
 20
3.81761
 30
0.0
  0
VERTEX
  8
0
  6
CONTINUOUS
 62
     7
  5
2CF
 10
0.675689
 20
3.802421
 30
0.0
  0
VERTEX
  8
0
  6
CONTINUOUS
 62
     7
  5
2D0
 10
0.656309
 20
3.786392
 30
0.0
  0
VERTEX
  8
0
  6
CONTINUOUS
 62
     7
  5
2D1
 10
0.637631
 20
3.769563
 30
0.0
  0
VERTEX
  8
0
  6
CONTINUOUS
 62
     7
  5
2D2
 10
0.619671
 20
3.751949
 30
0.0
  0
VERTEX
  8
0
  6
CONTINUOUS
 62
     7
  5
2D3
 10
0.602482
 20
3.733601
 30
0.0
  0
VERTEX
  8
0
  6
CONTINUOUS
 62
     7
  5
2D4
 10
0.586079
 20
3.714535
 30
0.0
  0
VERTEX
  8
0
  6
CONTINUOUS
 62
     7
  5
2D5
 10
0.570504
 20
3.6948
 30
0.0
  0
VERTEX
  8
0
  6
CONTINUOUS
 62
     7
  5
2D6
 10
0.555773
 20
3.674415
 30
0.0
  0
VERTEX
  8
0
  6
CONTINUOUS
 62
     7
  5
2D7
 10
0.541923
 20
3.653433
 30
0.0
  0
VERTEX
  8
0
  6
CONTINUOUS
 62
     7
  5
2D8
 10
0.528969
 20
3.631876
 30
0.0
  0
VERTEX
  8
0
  6
CONTINUOUS
 62
     7
  5
2D9
 10
0.516944
 20
3.609798
 30
0.0
  0
VERTEX
  8
0
  6
CONTINUOUS
 62
     7
  5
2DA
 10
0.50586
 20
3.587223
 30
0.0
  0
VERTEX
  8
0
  6
CONTINUOUS
 62
     7
  5
2DB
 10
0.495745
 20
3.564207
 30
0.0
  0
VERTEX
  8
0
  6
CONTINUOUS
 62
     7
  5
2DC
 10
0.48661
 20
3.540775
 30
0.0
  0
VERTEX
  8
0
  6
CONTINUOUS
 62
     7
  5
2DD
 10
0.478478
 20
3.516986
 30
0.0
  0
VERTEX
  8
0
  6
CONTINUOUS
 62
     7
  5
2DE
 10
0.471357
 20
3.492865
 30
0.0
  0
VERTEX
  8
0
  6
CONTINUOUS
 62
     7
  5
2DF
 10
0.465266
 20
3.468474
 30
0.0
  0
VERTEX
  8
0
  6
CONTINUOUS
 62
     7
  5
2E0
 10
0.460211
 20
3.443837
 30
0.0
  0
VERTEX
  8
0
  6
CONTINUOUS
 62
     7
  5
2E1
 10
0.456204
 20
3.419018
 30
0.0
  0
VERTEX
  8
0
  6
CONTINUOUS
 62
     7
  5
2E2
 10
0.45325
 20
3.394042
 30
0.0
  0
VERTEX
  8
0
  6
CONTINUOUS
 62
     7
  5
2E3
 10
0.451356
 20
3.368972
 30
0.0
  0
VERTEX
  8
0
  6
CONTINUOUS
 62
     7
  5
2E4
 10
0.450525
 20
3.343836
 30
0.0
  0
VERTEX
  8
0
  6
CONTINUOUS
 62
     7
  5
2E5
 10
0.450758
 20
3.318697
 30
0.0
  0
VERTEX
  8
0
  6
CONTINUOUS
 62
     7
  5
2E6
 10
0.452055
 20
3.29358
 30
0.0
  0
VERTEX
  8
0
  6
CONTINUOUS
 62
     7
  5
2E7
 10
0.454412
 20
3.26855
 30
0.0
  0
VERTEX
  8
0
  6
CONTINUOUS
 62
     7
  5
2E8
 10
0.457828
 20
3.243633
 30
0.0
  0
VERTEX
  8
0
  6
CONTINUOUS
 62
     7
  5
2E9
 10
0.462294
 20
3.218892
 30
0.0
  0
VERTEX
  8
0
  6
CONTINUOUS
 62
     7
  5
2EA
 10
0.467805
 20
3.194354
 30
0.0
  0
VERTEX
  8
0
  6
CONTINUOUS
 62
     7
  5
2EB
 10
0.474347
 20
3.170079
 30
0.0
  0
VERTEX
  8
0
  6
CONTINUOUS
 62
     7
  5
2EC
 10
0.481913
 20
3.146094
 30
0.0
  0
VERTEX
  8
0
  6
CONTINUOUS
 62
     7
  5
2ED
 10
0.490484
 20
3.12246
 30
0.0
  0
VERTEX
  8
0
  6
CONTINUOUS
 62
     7
  5
2EE
 10
0.500052
 20
3.099201
 30
0.0
  0
VERTEX
  8
0
  6
CONTINUOUS
 62
     7
  5
2EF
 10
0.510591
 20
3.076377
 30
0.0
  0
VERTEX
  8
0
  6
CONTINUOUS
 62
     7
  5
2F0
 10
0.522092
 20
3.054011
 30
0.0
  0
VERTEX
  8
0
  6
CONTINUOUS
 62
     7
  5
2F1
 10
0.534524
 20
3.032159
 30
0.0
  0
VERTEX
  8
0
  6
CONTINUOUS
 62
     7
  5
2F2
 10
0.547875
 20
3.010845
 30
0.0
  0
VERTEX
  8
0
  6
CONTINUOUS
 62
     7
  5
2F3
 10
0.562111
 20
2.990124
 30
0.0
  0
VERTEX
  8
0
  6
CONTINUOUS
 62
     7
  5
2F4
 10
0.577218
 20
2.970016
 30
0.0
  0
VERTEX
  8
0
  6
CONTINUOUS
 62
     7
  5
2F5
 10
0.593156
 20
2.950572
 30
0.0
  0
VERTEX
  8
0
  6
CONTINUOUS
 62
     7
  5
2F6
 10
0.609909
 20
2.931814
 30
0.0
  0
VERTEX
  8
0
  6
CONTINUOUS
 62
     7
  5
2F7
 10
0.627438
 20
2.913783
 30
0.0
  0
VERTEX
  8
0
  6
CONTINUOUS
 62
     7
  5
2F8
 10
0.645717
 20
2.896508
 30
0.0
  0
VERTEX
  8
0
  6
CONTINUOUS
 62
     7
  5
2F9
 10
0.664704
 20
2.880028
 30
0.0
  0
VERTEX
  8
0
  6
CONTINUOUS
 62
     7
  5
2FA
 10
0.684378
 20
2.864361
 30
0.0
  0
VERTEX
  8
0
  6
CONTINUOUS
 62
     7
  5
2FB
 10
0.70469
 20
2.849546
 30
0.0
  0
VERTEX
  8
0
  6
CONTINUOUS
 62
     7
  5
2FC
 10
0.725618
 20
2.835599
 30
0.0
  0
VERTEX
  8
0
  6
CONTINUOUS
 62
     7
  5
2FD
 10
0.747111
 20
2.822555
 30
0.0
  0
VERTEX
  8
0
  6
CONTINUOUS
 62
     7
  5
2FE
 10
0.769144
 20
2.810429
 30
0.0
  0
VERTEX
  8
0
  6
CONTINUOUS
 62
     7
  5
2FF
 10
0.791662
 20
2.79925
 30
0.0
  0
VERTEX
  8
0
  6
CONTINUOUS
 62
     7
  5
300
 10
0.814642
 20
2.78903
 30
0.0
  0
VERTEX
  8
0
  6
CONTINUOUS
 62
     7
  5
301
 10
0.814544
 20
2.789077
 30
0.0
  0
SEQEND
  8
0
  6
CONTINUOUS
  5
302
  0
POLYLINE
  8
0
  6
CONTINUOUS
 62
     7
  5
303
 66
     1
 10
0.0
 20
0.0
 30
0.0
 40
0.035012
 41
0.035012
  0
VERTEX
  8
0
  6
CONTINUOUS
 62
     7
  5
304
 10
1.342295
 20
2.808899
 30
0.0
  0
VERTEX
  8
0
  6
CONTINUOUS
 62
     7
  5
305
 10
1.299483
 20
2.787865
 30
0.0
  0
SEQEND
  8
0
  6
CONTINUOUS
  5
306
  0
TEXT
  8
0
 62
     7
  5
307
 10
-5.841621
 20
-4.227083
 30
0.0
 40
0.500168
  1
Assembly Drawing
 41
0.663803
  0
POLYLINE
  8
LAYER-1
  6
CONTINUOUS
 62
     7
  5
308
 66
     1
 10
0.0
 20
0.0
 30
0.0
 70
     1
 40
0.027509
 41
0.027509
  0
VERTEX
  8
LAYER-1
  6
CONTINUOUS
 62
     7
  5
309
 10
-5.308983
 20
2.71647
 30
0.0
  0
VERTEX
  8
LAYER-1
  6
CONTINUOUS
 62
     7
  5
30A
 10
-5.309134
 20
2.722605
 30
0.0
  0
VERTEX
  8
LAYER-1
  6
CONTINUOUS
 62
     7
  5
30B
 10
-5.309585
 20
2.728725
 30
0.0
  0
VERTEX
  8
LAYER-1
  6
CONTINUOUS
 62
     7
  5
30C
 10
-5.310336
 20
2.734815
 30
0.0
  0
VERTEX
  8
LAYER-1
  6
CONTINUOUS
 62
     7
  5
30D
 10
-5.311385
 20
2.740861
 30
0.0
  0
VERTEX
  8
LAYER-1
  6
CONTINUOUS
 62
     7
  5
30E
 10
-5.31273
 20
2.746849
 30
0.0
  0
VERTEX
  8
LAYER-1
  6
CONTINUOUS
 62
     7
  5
30F
 10
-5.314366
 20
2.752762
 30
0.0
  0
VERTEX
  8
LAYER-1
  6
CONTINUOUS
 62
     7
  5
310
 10
-5.316292
 20
2.758589
 30
0.0
  0
VERTEX
  8
LAYER-1
  6
CONTINUOUS
 62
     7
  5
311
 10
-5.3185
 20
2.764314
 30
0.0
  0
VERTEX
  8
LAYER-1
  6
CONTINUOUS
 62
     7
  5
312
 10
-5.320987
 20
2.769924
 30
0.0
  0
VERTEX
  8
LAYER-1
  6
CONTINUOUS
 62
     7
  5
313
 10
-5.323746
 20
2.775403
 30
0.0
  0
VERTEX
  8
LAYER-1
  6
CONTINUOUS
 62
     7
  5
314
 10
-5.326771
 20
2.780743
 30
0.0
  0
VERTEX
  8
LAYER-1
  6
CONTINUOUS
 62
     7
  5
315
 10
-5.330054
 20
2.785927
 30
0.0
  0
VERTEX
  8
LAYER-1
  6
CONTINUOUS
 62
     7
  5
316
 10
-5.333589
 20
2.790944
 30
0.0
  0
VERTEX
  8
LAYER-1
  6
CONTINUOUS
 62
     7
  5
317
 10
-5.337364
 20
2.79578
 30
0.0
  0
VERTEX
  8
LAYER-1
  6
CONTINUOUS
 62
     7
  5
318
 10
-5.341373
 20
2.800426
 30
0.0
  0
VERTEX
  8
LAYER-1
  6
CONTINUOUS
 62
     7
  5
319
 10
-5.345605
 20
2.80487
 30
0.0
  0
VERTEX
  8
LAYER-1
  6
CONTINUOUS
 62
     7
  5
31A
 10
-5.350051
 20
2.809102
 30
0.0
  0
VERTEX
  8
LAYER-1
  6
CONTINUOUS
 62
     7
  5
31B
 10
-5.354697
 20
2.813109
 30
0.0
  0
VERTEX
  8
LAYER-1
  6
CONTINUOUS
 62
     7
  5
31C
 10
-5.359536
 20
2.816885
 30
0.0
  0
VERTEX
  8
LAYER-1
  6
CONTINUOUS
 62
     7
  5
31D
 10
-5.364552
 20
2.820416
 30
0.0
  0
VERTEX
  8
LAYER-1
  6
CONTINUOUS
 62
     7
  5
31E
 10
-5.369738
 20
2.823698
 30
0.0
  0
VERTEX
  8
LAYER-1
  6
CONTINUOUS
 62
     7
  5
31F
 10
-5.375077
 20
2.826722
 30
0.0
  0
VERTEX
  8
LAYER-1
  6
CONTINUOUS
 62
     7
  5
320
 10
-5.380559
 20
2.82948
 30
0.0
  0
VERTEX
  8
LAYER-1
  6
CONTINUOUS
 62
     7
  5
321
 10
-5.386169
 20
2.831965
 30
0.0
  0
VERTEX
  8
LAYER-1
  6
CONTINUOUS
 62
     7
  5
322
 10
-5.391895
 20
2.834173
 30
0.0
  0
VERTEX
  8
LAYER-1
  6
CONTINUOUS
 62
     7
  5
323
 10
-5.397721
 20
2.836095
 30
0.0
  0
VERTEX
  8
LAYER-1
  6
CONTINUOUS
 62
     7
  5
324
 10
-5.403636
 20
2.837731
 30
0.0
  0
VERTEX
  8
LAYER-1
  6
CONTINUOUS
 62
     7
  5
325
 10
-5.409623
 20
2.839075
 30
0.0
  0
VERTEX
  8
LAYER-1
  6
CONTINUOUS
 62
     7
  5
326
 10
-5.41567
 20
2.840122
 30
0.0
  0
VERTEX
  8
LAYER-1
  6
CONTINUOUS
 62
     7
  5
327
 10
-5.421759
 20
2.840872
 30
0.0
  0
VERTEX
  8
LAYER-1
  6
CONTINUOUS
 62
     7
  5
328
 10
-5.42788
 20
2.841321
 30
0.0
  0
VERTEX
  8
LAYER-1
  6
CONTINUOUS
 62
     7
  5
329
 10
-5.433953
 20
2.84147
 30
0.0
  0
VERTEX
  8
LAYER-1
  6
CONTINUOUS
 62
     7
  5
32A
 10
-5.440086
 20
2.841321
 30
0.0
  0
VERTEX
  8
LAYER-1
  6
CONTINUOUS
 62
     7
  5
32B
 10
-5.446207
 20
2.840872
 30
0.0
  0
VERTEX
  8
LAYER-1
  6
CONTINUOUS
 62
     7
  5
32C
 10
-5.452296
 20
2.840122
 30
0.0
  0
VERTEX
  8
LAYER-1
  6
CONTINUOUS
 62
     7
  5
32D
 10
-5.458343
 20
2.839075
 30
0.0
  0
VERTEX
  8
LAYER-1
  6
CONTINUOUS
 62
     7
  5
32E
 10
-5.46433
 20
2.837731
 30
0.0
  0
VERTEX
  8
LAYER-1
  6
CONTINUOUS
 62
     7
  5
32F
 10
-5.470245
 20
2.836095
 30
0.0
  0
VERTEX
  8
LAYER-1
  6
CONTINUOUS
 62
     7
  5
330
 10
-5.476071
 20
2.834173
 30
0.0
  0
VERTEX
  8
LAYER-1
  6
CONTINUOUS
 62
     7
  5
331
 10
-5.481797
 20
2.831965
 30
0.0
  0
VERTEX
  8
LAYER-1
  6
CONTINUOUS
 62
     7
  5
332
 10
-5.487407
 20
2.82948
 30
0.0
  0
VERTEX
  8
LAYER-1
  6
CONTINUOUS
 62
     7
  5
333
 10
-5.492889
 20
2.826722
 30
0.0
  0
VERTEX
  8
LAYER-1
  6
CONTINUOUS
 62
     7
  5
334
 10
-5.498228
 20
2.823698
 30
0.0
  0
VERTEX
  8
LAYER-1
  6
CONTINUOUS
 62
     7
  5
335
 10
-5.503414
 20
2.820416
 30
0.0
  0
VERTEX
  8
LAYER-1
  6
CONTINUOUS
 62
     7
  5
336
 10
-5.50843
 20
2.816885
 30
0.0
  0
VERTEX
  8
LAYER-1
  6
CONTINUOUS
 62
     7
  5
337
 10
-5.513269
 20
2.813109
 30
0.0
  0
VERTEX
  8
LAYER-1
  6
CONTINUOUS
 62
     7
  5
338
 10
-5.517915
 20
2.809102
 30
0.0
  0
VERTEX
  8
LAYER-1
  6
CONTINUOUS
 62
     7
  5
339
 10
-5.522361
 20
2.80487
 30
0.0
  0
VERTEX
  8
LAYER-1
  6
CONTINUOUS
 62
     7
  5
33A
 10
-5.526593
 20
2.800426
 30
0.0
  0
VERTEX
  8
LAYER-1
  6
CONTINUOUS
 62
     7
  5
33B
 10
-5.530602
 20
2.79578
 30
0.0
  0
VERTEX
  8
LAYER-1
  6
CONTINUOUS
 62
     7
  5
33C
 10
-5.534377
 20
2.790944
 30
0.0
  0
VERTEX
  8
LAYER-1
  6
CONTINUOUS
 62
     7
  5
33D
 10
-5.537912
 20
2.785927
 30
0.0
  0
VERTEX
  8
LAYER-1
  6
CONTINUOUS
 62
     7
  5
33E
 10
-5.541195
 20
2.780743
 30
0.0
  0
VERTEX
  8
LAYER-1
  6
CONTINUOUS
 62
     7
  5
33F
 10
-5.54422
 20
2.775403
 30
0.0
  0
VERTEX
  8
LAYER-1
  6
CONTINUOUS
 62
     7
  5
340
 10
-5.546979
 20
2.769924
 30
0.0
  0
VERTEX
  8
LAYER-1
  6
CONTINUOUS
 62
     7
  5
341
 10
-5.549466
 20
2.764314
 30
0.0
  0
VERTEX
  8
LAYER-1
  6
CONTINUOUS
 62
     7
  5
342
 10
-5.551674
 20
2.758589
 30
0.0
  0
VERTEX
  8
LAYER-1
  6
CONTINUOUS
 62
     7
  5
343
 10
-5.5536
 20
2.752762
 30
0.0
  0
VERTEX
  8
LAYER-1
  6
CONTINUOUS
 62
     7
  5
344
 10
-5.555236
 20
2.746849
 30
0.0
  0
VERTEX
  8
LAYER-1
  6
CONTINUOUS
 62
     7
  5
345
 10
-5.556581
 20
2.740861
 30
0.0
  0
VERTEX
  8
LAYER-1
  6
CONTINUOUS
 62
     7
  5
346
 10
-5.55763
 20
2.734815
 30
0.0
  0
VERTEX
  8
LAYER-1
  6
CONTINUOUS
 62
     7
  5
347
 10
-5.558381
 20
2.728725
 30
0.0
  0
VERTEX
  8
LAYER-1
  6
CONTINUOUS
 62
     7
  5
348
 10
-5.558832
 20
2.722605
 30
0.0
  0
VERTEX
  8
LAYER-1
  6
CONTINUOUS
 62
     7
  5
349
 10
-5.558983
 20
2.71647
 30
0.0
  0
VERTEX
  8
LAYER-1
  6
CONTINUOUS
 62
     7
  5
34A
 10
-5.558832
 20
2.710335
 30
0.0
  0
VERTEX
  8
LAYER-1
  6
CONTINUOUS
 62
     7
  5
34B
 10
-5.558381
 20
2.704216
 30
0.0
  0
VERTEX
  8
LAYER-1
  6
CONTINUOUS
 62
     7
  5
34C
 10
-5.55763
 20
2.698126
 30
0.0
  0
VERTEX
  8
LAYER-1
  6
CONTINUOUS
 62
     7
  5
34D
 10
-5.556581
 20
2.69208
 30
0.0
  0
VERTEX
  8
LAYER-1
  6
CONTINUOUS
 62
     7
  5
34E
 10
-5.555236
 20
2.686093
 30
0.0
  0
VERTEX
  8
LAYER-1
  6
CONTINUOUS
 62
     7
  5
34F
 10
-5.5536
 20
2.680179
 30
0.0
  0
VERTEX
  8
LAYER-1
  6
CONTINUOUS
 62
     7
  5
350
 10
-5.551674
 20
2.674352
 30
0.0
  0
VERTEX
  8
LAYER-1
  6
CONTINUOUS
 62
     7
  5
351
 10
-5.549466
 20
2.668627
 30
0.0
  0
VERTEX
  8
LAYER-1
  6
CONTINUOUS
 62
     7
  5
352
 10
-5.546979
 20
2.663018
 30
0.0
  0
VERTEX
  8
LAYER-1
  6
CONTINUOUS
 62
     7
  5
353
 10
-5.54422
 20
2.657538
 30
0.0
  0
VERTEX
  8
LAYER-1
  6
CONTINUOUS
 62
     7
  5
354
 10
-5.541195
 20
2.652198
 30
0.0
  0
VERTEX
  8
LAYER-1
  6
CONTINUOUS
 62
     7
  5
355
 10
-5.537912
 20
2.647015
 30
0.0
  0
VERTEX
  8
LAYER-1
  6
CONTINUOUS
 62
     7
  5
356
 10
-5.534377
 20
2.641998
 30
0.0
  0
VERTEX
  8
LAYER-1
  6
CONTINUOUS
 62
     7
  5
357
 10
-5.530602
 20
2.63716
 30
0.0
  0
VERTEX
  8
LAYER-1
  6
CONTINUOUS
 62
     7
  5
358
 10
-5.526593
 20
2.632515
 30
0.0
  0
VERTEX
  8
LAYER-1
  6
CONTINUOUS
 62
     7
  5
359
 10
-5.522361
 20
2.628071
 30
0.0
  0
VERTEX
  8
LAYER-1
  6
CONTINUOUS
 62
     7
  5
35A
 10
-5.517915
 20
2.623839
 30
0.0
  0
VERTEX
  8
LAYER-1
  6
CONTINUOUS
 62
     7
  5
35B
 10
-5.513269
 20
2.619832
 30
0.0
  0
VERTEX
  8
LAYER-1
  6
CONTINUOUS
 62
     7
  5
35C
 10
-5.50843
 20
2.616057
 30
0.0
  0
VERTEX
  8
LAYER-1
  6
CONTINUOUS
 62
     7
  5
35D
 10
-5.503414
 20
2.612525
 30
0.0
  0
VERTEX
  8
LAYER-1
  6
CONTINUOUS
 62
     7
  5
35E
 10
-5.498228
 20
2.609243
 30
0.0
  0
VERTEX
  8
LAYER-1
  6
CONTINUOUS
 62
     7
  5
35F
 10
-5.492889
 20
2.606219
 30
0.0
  0
VERTEX
  8
LAYER-1
  6
CONTINUOUS
 62
     7
  5
360
 10
-5.487407
 20
2.603461
 30
0.0
  0
VERTEX
  8
LAYER-1
  6
CONTINUOUS
 62
     7
  5
361
 10
-5.481797
 20
2.600976
 30
0.0
  0
VERTEX
  8
LAYER-1
  6
CONTINUOUS
 62
     7
  5
362
 10
-5.476071
 20
2.598768
 30
0.0
  0
VERTEX
  8
LAYER-1
  6
CONTINUOUS
 62
     7
  5
363
 10
-5.470245
 20
2.596845
 30
0.0
  0
VERTEX
  8
LAYER-1
  6
CONTINUOUS
 62
     7
  5
364
 10
-5.46433
 20
2.59521
 30
0.0
  0
VERTEX
  8
LAYER-1
  6
CONTINUOUS
 62
     7
  5
365
 10
-5.458343
 20
2.593866
 30
0.0
  0
VERTEX
  8
LAYER-1
  6
CONTINUOUS
 62
     7
  5
366
 10
-5.452296
 20
2.59282
 30
0.0
  0
VERTEX
  8
LAYER-1
  6
CONTINUOUS
 62
     7
  5
367
 10
-5.446207
 20
2.59207
 30
0.0
  0
VERTEX
  8
LAYER-1
  6
CONTINUOUS
 62
     7
  5
368
 10
-5.440086
 20
2.59162
 30
0.0
  0
VERTEX
  8
LAYER-1
  6
CONTINUOUS
 62
     7
  5
369
 10
-5.433953
 20
2.59147
 30
0.0
  0
VERTEX
  8
LAYER-1
  6
CONTINUOUS
 62
     7
  5
36A
 10
-5.42788
 20
2.59162
 30
0.0
  0
VERTEX
  8
LAYER-1
  6
CONTINUOUS
 62
     7
  5
36B
 10
-5.421759
 20
2.59207
 30
0.0
  0
VERTEX
  8
LAYER-1
  6
CONTINUOUS
 62
     7
  5
36C
 10
-5.41567
 20
2.59282
 30
0.0
  0
VERTEX
  8
LAYER-1
  6
CONTINUOUS
 62
     7
  5
36D
 10
-5.409623
 20
2.593866
 30
0.0
  0
VERTEX
  8
LAYER-1
  6
CONTINUOUS
 62
     7
  5
36E
 10
-5.403636
 20
2.59521
 30
0.0
  0
VERTEX
  8
LAYER-1
  6
CONTINUOUS
 62
     7
  5
36F
 10
-5.397721
 20
2.596845
 30
0.0
  0
VERTEX
  8
LAYER-1
  6
CONTINUOUS
 62
     7
  5
370
 10
-5.391895
 20
2.598768
 30
0.0
  0
VERTEX
  8
LAYER-1
  6
CONTINUOUS
 62
     7
  5
371
 10
-5.386169
 20
2.600976
 30
0.0
  0
VERTEX
  8
LAYER-1
  6
CONTINUOUS
 62
     7
  5
372
 10
-5.380559
 20
2.603461
 30
0.0
  0
VERTEX
  8
LAYER-1
  6
CONTINUOUS
 62
     7
  5
373
 10
-5.375077
 20
2.606219
 30
0.0
  0
VERTEX
  8
LAYER-1
  6
CONTINUOUS
 62
     7
  5
374
 10
-5.369738
 20
2.609243
 30
0.0
  0
VERTEX
  8
LAYER-1
  6
CONTINUOUS
 62
     7
  5
375
 10
-5.364552
 20
2.612525
 30
0.0
  0
VERTEX
  8
LAYER-1
  6
CONTINUOUS
 62
     7
  5
376
 10
-5.359536
 20
2.616057
 30
0.0
  0
VERTEX
  8
LAYER-1
  6
CONTINUOUS
 62
     7
  5
377
 10
-5.354697
 20
2.619832
 30
0.0
  0
VERTEX
  8
LAYER-1
  6
CONTINUOUS
 62
     7
  5
378
 10
-5.350051
 20
2.623839
 30
0.0
  0
VERTEX
  8
LAYER-1
  6
CONTINUOUS
 62
     7
  5
379
 10
-5.345605
 20
2.628071
 30
0.0
  0
VERTEX
  8
LAYER-1
  6
CONTINUOUS
 62
     7
  5
37A
 10
-5.341373
 20
2.632515
 30
0.0
  0
VERTEX
  8
LAYER-1
  6
CONTINUOUS
 62
     7
  5
37B
 10
-5.337364
 20
2.63716
 30
0.0
  0
VERTEX
  8
LAYER-1
  6
CONTINUOUS
 62
     7
  5
37C
 10
-5.333589
 20
2.641998
 30
0.0
  0
VERTEX
  8
LAYER-1
  6
CONTINUOUS
 62
     7
  5
37D
 10
-5.330054
 20
2.647015
 30
0.0
  0
VERTEX
  8
LAYER-1
  6
CONTINUOUS
 62
     7
  5
37E
 10
-5.326771
 20
2.652198
 30
0.0
  0
VERTEX
  8
LAYER-1
  6
CONTINUOUS
 62
     7
  5
37F
 10
-5.323746
 20
2.657538
 30
0.0
  0
VERTEX
  8
LAYER-1
  6
CONTINUOUS
 62
     7
  5
380
 10
-5.320987
 20
2.663018
 30
0.0
  0
VERTEX
  8
LAYER-1
  6
CONTINUOUS
 62
     7
  5
381
 10
-5.3185
 20
2.668627
 30
0.0
  0
VERTEX
  8
LAYER-1
  6
CONTINUOUS
 62
     7
  5
382
 10
-5.316292
 20
2.674352
 30
0.0
  0
VERTEX
  8
LAYER-1
  6
CONTINUOUS
 62
     7
  5
383
 10
-5.314366
 20
2.680179
 30
0.0
  0
VERTEX
  8
LAYER-1
  6
CONTINUOUS
 62
     7
  5
384
 10
-5.31273
 20
2.686093
 30
0.0
  0
VERTEX
  8
LAYER-1
  6
CONTINUOUS
 62
     7
  5
385
 10
-5.311385
 20
2.69208
 30
0.0
  0
VERTEX
  8
LAYER-1
  6
CONTINUOUS
 62
     7
  5
386
 10
-5.310336
 20
2.698126
 30
0.0
  0
VERTEX
  8
LAYER-1
  6
CONTINUOUS
 62
     7
  5
387
 10
-5.309585
 20
2.704216
 30
0.0
  0
VERTEX
  8
LAYER-1
  6
CONTINUOUS
 62
     7
  5
388
 10
-5.309134
 20
2.710335
 30
0.0
  0
SEQEND
  8
LAYER-1
  6
CONTINUOUS
  5
389
  0
POLYLINE
  8
LAYER-1
  6
CONTINUOUS
 62
     7
  5
38A
 66
     1
 10
0.0
 20
0.0
 30
0.0
 70
     1
 40
0.027509
 41
0.027509
  0
VERTEX
  8
LAYER-1
  6
CONTINUOUS
 62
     7
  5
38B
 10
-5.758983
 20
0.411471
 30
0.0
  0
VERTEX
  8
LAYER-1
  6
CONTINUOUS
 62
     7
  5
38C
 10
-5.759134
 20
0.417606
 30
0.0
  0
VERTEX
  8
LAYER-1
  6
CONTINUOUS
 62
     7
  5
38D
 10
-5.759585
 20
0.423725
 30
0.0
  0
VERTEX
  8
LAYER-1
  6
CONTINUOUS
 62
     7
  5
38E
 10
-5.760336
 20
0.429816
 30
0.0
  0
VERTEX
  8
LAYER-1
  6
CONTINUOUS
 62
     7
  5
38F
 10
-5.761385
 20
0.43586
 30
0.0
  0
VERTEX
  8
LAYER-1
  6
CONTINUOUS
 62
     7
  5
390
 10
-5.76273
 20
0.441848
 30
0.0
  0
VERTEX
  8
LAYER-1
  6
CONTINUOUS
 62
     7
  5
391
 10
-5.764366
 20
0.447761
 30
0.0
  0
VERTEX
  8
LAYER-1
  6
CONTINUOUS
 62
     7
  5
392
 10
-5.766292
 20
0.453589
 30
0.0
  0
VERTEX
  8
LAYER-1
  6
CONTINUOUS
 62
     7
  5
393
 10
-5.7685
 20
0.459313
 30
0.0
  0
VERTEX
  8
LAYER-1
  6
CONTINUOUS
 62
     7
  5
394
 10
-5.770987
 20
0.464923
 30
0.0
  0
VERTEX
  8
LAYER-1
  6
CONTINUOUS
 62
     7
  5
395
 10
-5.773746
 20
0.470403
 30
0.0
  0
VERTEX
  8
LAYER-1
  6
CONTINUOUS
 62
     7
  5
396
 10
-5.776771
 20
0.475743
 30
0.0
  0
VERTEX
  8
LAYER-1
  6
CONTINUOUS
 62
     7
  5
397
 10
-5.780054
 20
0.480926
 30
0.0
  0
VERTEX
  8
LAYER-1
  6
CONTINUOUS
 62
     7
  5
398
 10
-5.783589
 20
0.485943
 30
0.0
  0
VERTEX
  8
LAYER-1
  6
CONTINUOUS
 62
     7
  5
399
 10
-5.787364
 20
0.490781
 30
0.0
  0
VERTEX
  8
LAYER-1
  6
CONTINUOUS
 62
     7
  5
39A
 10
-5.791373
 20
0.495426
 30
0.0
  0
VERTEX
  8
LAYER-1
  6
CONTINUOUS
 62
     7
  5
39B
 10
-5.795605
 20
0.499871
 30
0.0
  0
VERTEX
  8
LAYER-1
  6
CONTINUOUS
 62
     7
  5
39C
 10
-5.800051
 20
0.504103
 30
0.0
  0
VERTEX
  8
LAYER-1
  6
CONTINUOUS
 62
     7
  5
39D
 10
-5.804697
 20
0.508109
 30
0.0
  0
VERTEX
  8
LAYER-1
  6
CONTINUOUS
 62
     7
  5
39E
 10
-5.809536
 20
0.511884
 30
0.0
  0
VERTEX
  8
LAYER-1
  6
CONTINUOUS
 62
     7
  5
39F
 10
-5.814553
 20
0.515417
 30
0.0
  0
VERTEX
  8
LAYER-1
  6
CONTINUOUS
 62
     7
  5
3A0
 10
-5.819738
 20
0.518698
 30
0.0
  0
VERTEX
  8
LAYER-1
  6
CONTINUOUS
 62
     7
  5
3A1
 10
-5.825077
 20
0.521721
 30
0.0
  0
VERTEX
  8
LAYER-1
  6
CONTINUOUS
 62
     7
  5
3A2
 10
-5.830559
 20
0.524481
 30
0.0
  0
VERTEX
  8
LAYER-1
  6
CONTINUOUS
 62
     7
  5
3A3
 10
-5.836169
 20
0.526965
 30
0.0
  0
VERTEX
  8
LAYER-1
  6
CONTINUOUS
 62
     7
  5
3A4
 10
-5.841895
 20
0.529173
 30
0.0
  0
VERTEX
  8
LAYER-1
  6
CONTINUOUS
 62
     7
  5
3A5
 10
-5.847721
 20
0.531096
 30
0.0
  0
VERTEX
  8
LAYER-1
  6
CONTINUOUS
 62
     7
  5
3A6
 10
-5.853636
 20
0.532732
 30
0.0
  0
VERTEX
  8
LAYER-1
  6
CONTINUOUS
 62
     7
  5
3A7
 10
-5.859623
 20
0.534075
 30
0.0
  0
VERTEX
  8
LAYER-1
  6
CONTINUOUS
 62
     7
  5
3A8
 10
-5.86567
 20
0.535122
 30
0.0
  0
VERTEX
  8
LAYER-1
  6
CONTINUOUS
 62
     7
  5
3A9
 10
-5.871759
 20
0.535871
 30
0.0
  0
VERTEX
  8
LAYER-1
  6
CONTINUOUS
 62
     7
  5
3AA
 10
-5.87788
 20
0.536322
 30
0.0
  0
VERTEX
  8
LAYER-1
  6
CONTINUOUS
 62
     7
  5
3AB
 10
-5.883952
 20
0.53647
 30
0.0
  0
VERTEX
  8
LAYER-1
  6
CONTINUOUS
 62
     7
  5
3AC
 10
-5.890086
 20
0.536322
 30
0.0
  0
VERTEX
  8
LAYER-1
  6
CONTINUOUS
 62
     7
  5
3AD
 10
-5.896207
 20
0.535871
 30
0.0
  0
VERTEX
  8
LAYER-1
  6
CONTINUOUS
 62
     7
  5
3AE
 10
-5.902296
 20
0.535122
 30
0.0
  0
VERTEX
  8
LAYER-1
  6
CONTINUOUS
 62
     7
  5
3AF
 10
-5.908343
 20
0.534075
 30
0.0
  0
VERTEX
  8
LAYER-1
  6
CONTINUOUS
 62
     7
  5
3B0
 10
-5.91433
 20
0.532732
 30
0.0
  0
VERTEX
  8
LAYER-1
  6
CONTINUOUS
 62
     7
  5
3B1
 10
-5.920245
 20
0.531096
 30
0.0
  0
VERTEX
  8
LAYER-1
  6
CONTINUOUS
 62
     7
  5
3B2
 10
-5.926071
 20
0.529173
 30
0.0
  0
VERTEX
  8
LAYER-1
  6
CONTINUOUS
 62
     7
  5
3B3
 10
-5.931797
 20
0.526965
 30
0.0
  0
VERTEX
  8
LAYER-1
  6
CONTINUOUS
 62
     7
  5
3B4
 10
-5.937407
 20
0.524481
 30
0.0
  0
VERTEX
  8
LAYER-1
  6
CONTINUOUS
 62
     7
  5
3B5
 10
-5.942889
 20
0.521721
 30
0.0
  0
VERTEX
  8
LAYER-1
  6
CONTINUOUS
 62
     7
  5
3B6
 10
-5.948228
 20
0.518698
 30
0.0
  0
VERTEX
  8
LAYER-1
  6
CONTINUOUS
 62
     7
  5
3B7
 10
-5.953414
 20
0.515417
 30
0.0
  0
VERTEX
  8
LAYER-1
  6
CONTINUOUS
 62
     7
  5
3B8
 10
-5.95843
 20
0.511884
 30
0.0
  0
VERTEX
  8
LAYER-1
  6
CONTINUOUS
 62
     7
  5
3B9
 10
-5.963269
 20
0.508109
 30
0.0
  0
VERTEX
  8
LAYER-1
  6
CONTINUOUS
 62
     7
  5
3BA
 10
-5.967915
 20
0.504103
 30
0.0
  0
VERTEX
  8
LAYER-1
  6
CONTINUOUS
 62
     7
  5
3BB
 10
-5.972361
 20
0.499871
 30
0.0
  0
VERTEX
  8
LAYER-1
  6
CONTINUOUS
 62
     7
  5
3BC
 10
-5.976593
 20
0.495426
 30
0.0
  0
VERTEX
  8
LAYER-1
  6
CONTINUOUS
 62
     7
  5
3BD
 10
-5.980602
 20
0.490781
 30
0.0
  0
VERTEX
  8
LAYER-1
  6
CONTINUOUS
 62
     7
  5
3BE
 10
-5.984378
 20
0.485943
 30
0.0
  0
VERTEX
  8
LAYER-1
  6
CONTINUOUS
 62
     7
  5
3BF
 10
-5.987912
 20
0.480926
 30
0.0
  0
VERTEX
  8
LAYER-1
  6
CONTINUOUS
 62
     7
  5
3C0
 10
-5.991195
 20
0.475743
 30
0.0
  0
VERTEX
  8
LAYER-1
  6
CONTINUOUS
 62
     7
  5
3C1
 10
-5.99422
 20
0.470403
 30
0.0
  0
VERTEX
  8
LAYER-1
  6
CONTINUOUS
 62
     7
  5
3C2
 10
-5.996979
 20
0.464923
 30
0.0
  0
VERTEX
  8
LAYER-1
  6
CONTINUOUS
 62
     7
  5
3C3
 10
-5.999466
 20
0.459313
 30
0.0
  0
VERTEX
  8
LAYER-1
  6
CONTINUOUS
 62
     7
  5
3C4
 10
-6.001675
 20
0.453589
 30
0.0
  0
VERTEX
  8
LAYER-1
  6
CONTINUOUS
 62
     7
  5
3C5
 10
-6.0036
 20
0.447761
 30
0.0
  0
VERTEX
  8
LAYER-1
  6
CONTINUOUS
 62
     7
  5
3C6
 10
-6.005236
 20
0.441848
 30
0.0
  0
VERTEX
  8
LAYER-1
  6
CONTINUOUS
 62
     7
  5
3C7
 10
-6.006581
 20
0.43586
 30
0.0
  0
VERTEX
  8
LAYER-1
  6
CONTINUOUS
 62
     7
  5
3C8
 10
-6.00763
 20
0.429816
 30
0.0
  0
VERTEX
  8
LAYER-1
  6
CONTINUOUS
 62
     7
  5
3C9
 10
-6.008381
 20
0.423725
 30
0.0
  0
VERTEX
  8
LAYER-1
  6
CONTINUOUS
 62
     7
  5
3CA
 10
-6.008832
 20
0.417606
 30
0.0
  0
VERTEX
  8
LAYER-1
  6
CONTINUOUS
 62
     7
  5
3CB
 10
-6.008983
 20
0.411471
 30
0.0
  0
VERTEX
  8
LAYER-1
  6
CONTINUOUS
 62
     7
  5
3CC
 10
-6.008832
 20
0.405336
 30
0.0
  0
VERTEX
  8
LAYER-1
  6
CONTINUOUS
 62
     7
  5
3CD
 10
-6.008381
 20
0.399216
 30
0.0
  0
VERTEX
  8
LAYER-1
  6
CONTINUOUS
 62
     7
  5
3CE
 10
-6.00763
 20
0.393126
 30
0.0
  0
VERTEX
  8
LAYER-1
  6
CONTINUOUS
 62
     7
  5
3CF
 10
-6.006581
 20
0.38708
 30
0.0
  0
VERTEX
  8
LAYER-1
  6
CONTINUOUS
 62
     7
  5
3D0
 10
-6.005236
 20
0.381093
 30
0.0
  0
VERTEX
  8
LAYER-1
  6
CONTINUOUS
 62
     7
  5
3D1
 10
-6.0036
 20
0.37518
 30
0.0
  0
VERTEX
  8
LAYER-1
  6
CONTINUOUS
 62
     7
  5
3D2
 10
-6.001675
 20
0.369352
 30
0.0
  0
VERTEX
  8
LAYER-1
  6
CONTINUOUS
 62
     7
  5
3D3
 10
-5.999466
 20
0.363627
 30
0.0
  0
VERTEX
  8
LAYER-1
  6
CONTINUOUS
 62
     7
  5
3D4
 10
-5.996979
 20
0.358017
 30
0.0
  0
VERTEX
  8
LAYER-1
  6
CONTINUOUS
 62
     7
  5
3D5
 10
-5.99422
 20
0.352538
 30
0.0
  0
VERTEX
  8
LAYER-1
  6
CONTINUOUS
 62
     7
  5
3D6
 10
-5.991195
 20
0.347197
 30
0.0
  0
VERTEX
  8
LAYER-1
  6
CONTINUOUS
 62
     7
  5
3D7
 10
-5.987912
 20
0.342015
 30
0.0
  0
VERTEX
  8
LAYER-1
  6
CONTINUOUS
 62
     7
  5
3D8
 10
-5.984378
 20
0.336998
 30
0.0
  0
VERTEX
  8
LAYER-1
  6
CONTINUOUS
 62
     7
  5
3D9
 10
-5.980602
 20
0.332161
 30
0.0
  0
VERTEX
  8
LAYER-1
  6
CONTINUOUS
 62
     7
  5
3DA
 10
-5.976593
 20
0.327514
 30
0.0
  0
VERTEX
  8
LAYER-1
  6
CONTINUOUS
 62
     7
  5
3DB
 10
-5.972361
 20
0.32307
 30
0.0
  0
VERTEX
  8
LAYER-1
  6
CONTINUOUS
 62
     7
  5
3DC
 10
-5.967915
 20
0.318839
 30
0.0
  0
VERTEX
  8
LAYER-1
  6
CONTINUOUS
 62
     7
  5
3DD
 10
-5.963269
 20
0.314831
 30
0.0
  0
VERTEX
  8
LAYER-1
  6
CONTINUOUS
 62
     7
  5
3DE
 10
-5.95843
 20
0.311057
 30
0.0
  0
VERTEX
  8
LAYER-1
  6
CONTINUOUS
 62
     7
  5
3DF
 10
-5.953414
 20
0.307524
 30
0.0
  0
VERTEX
  8
LAYER-1
  6
CONTINUOUS
 62
     7
  5
3E0
 10
-5.948228
 20
0.304243
 30
0.0
  0
VERTEX
  8
LAYER-1
  6
CONTINUOUS
 62
     7
  5
3E1
 10
-5.942889
 20
0.301219
 30
0.0
  0
VERTEX
  8
LAYER-1
  6
CONTINUOUS
 62
     7
  5
3E2
 10
-5.937407
 20
0.298461
 30
0.0
  0
VERTEX
  8
LAYER-1
  6
CONTINUOUS
 62
     7
  5
3E3
 10
-5.931797
 20
0.295976
 30
0.0
  0
VERTEX
  8
LAYER-1
  6
CONTINUOUS
 62
     7
  5
3E4
 10
-5.926071
 20
0.293768
 30
0.0
  0
VERTEX
  8
LAYER-1
  6
CONTINUOUS
 62
     7
  5
3E5
 10
-5.920245
 20
0.291845
 30
0.0
  0
VERTEX
  8
LAYER-1
  6
CONTINUOUS
 62
     7
  5
3E6
 10
-5.91433
 20
0.29021
 30
0.0
  0
VERTEX
  8
LAYER-1
  6
CONTINUOUS
 62
     7
  5
3E7
 10
-5.908343
 20
0.288867
 30
0.0
  0
VERTEX
  8
LAYER-1
  6
CONTINUOUS
 62
     7
  5
3E8
 10
-5.902296
 20
0.287818
 30
0.0
  0
VERTEX
  8
LAYER-1
  6
CONTINUOUS
 62
     7
  5
3E9
 10
-5.896207
 20
0.287069
 30
0.0
  0
VERTEX
  8
LAYER-1
  6
CONTINUOUS
 62
     7
  5
3EA
 10
-5.890086
 20
0.28662
 30
0.0
  0
VERTEX
  8
LAYER-1
  6
CONTINUOUS
 62
     7
  5
3EB
 10
-5.883952
 20
0.286471
 30
0.0
  0
VERTEX
  8
LAYER-1
  6
CONTINUOUS
 62
     7
  5
3EC
 10
-5.87788
 20
0.28662
 30
0.0
  0
VERTEX
  8
LAYER-1
  6
CONTINUOUS
 62
     7
  5
3ED
 10
-5.871759
 20
0.287069
 30
0.0
  0
VERTEX
  8
LAYER-1
  6
CONTINUOUS
 62
     7
  5
3EE
 10
-5.86567
 20
0.287818
 30
0.0
  0
VERTEX
  8
LAYER-1
  6
CONTINUOUS
 62
     7
  5
3EF
 10
-5.859623
 20
0.288867
 30
0.0
  0
VERTEX
  8
LAYER-1
  6
CONTINUOUS
 62
     7
  5
3F0
 10
-5.853636
 20
0.29021
 30
0.0
  0
VERTEX
  8
LAYER-1
  6
CONTINUOUS
 62
     7
  5
3F1
 10
-5.847721
 20
0.291845
 30
0.0
  0
VERTEX
  8
LAYER-1
  6
CONTINUOUS
 62
     7
  5
3F2
 10
-5.841895
 20
0.293768
 30
0.0
  0
VERTEX
  8
LAYER-1
  6
CONTINUOUS
 62
     7
  5
3F3
 10
-5.836169
 20
0.295976
 30
0.0
  0
VERTEX
  8
LAYER-1
  6
CONTINUOUS
 62
     7
  5
3F4
 10
-5.830559
 20
0.298461
 30
0.0
  0
VERTEX
  8
LAYER-1
  6
CONTINUOUS
 62
     7
  5
3F5
 10
-5.825077
 20
0.301219
 30
0.0
  0
VERTEX
  8
LAYER-1
  6
CONTINUOUS
 62
     7
  5
3F6
 10
-5.819738
 20
0.304243
 30
0.0
  0
VERTEX
  8
LAYER-1
  6
CONTINUOUS
 62
     7
  5
3F7
 10
-5.814553
 20
0.307524
 30
0.0
  0
VERTEX
  8
LAYER-1
  6
CONTINUOUS
 62
     7
  5
3F8
 10
-5.809536
 20
0.311057
 30
0.0
  0
VERTEX
  8
LAYER-1
  6
CONTINUOUS
 62
     7
  5
3F9
 10
-5.804697
 20
0.314831
 30
0.0
  0
VERTEX
  8
LAYER-1
  6
CONTINUOUS
 62
     7
  5
3FA
 10
-5.800051
 20
0.318839
 30
0.0
  0
VERTEX
  8
LAYER-1
  6
CONTINUOUS
 62
     7
  5
3FB
 10
-5.795605
 20
0.32307
 30
0.0
  0
VERTEX
  8
LAYER-1
  6
CONTINUOUS
 62
     7
  5
3FC
 10
-5.791373
 20
0.327514
 30
0.0
  0
VERTEX
  8
LAYER-1
  6
CONTINUOUS
 62
     7
  5
3FD
 10
-5.787364
 20
0.332161
 30
0.0
  0
VERTEX
  8
LAYER-1
  6
CONTINUOUS
 62
     7
  5
3FE
 10
-5.783589
 20
0.336998
 30
0.0
  0
VERTEX
  8
LAYER-1
  6
CONTINUOUS
 62
     7
  5
3FF
 10
-5.780054
 20
0.342015
 30
0.0
  0
VERTEX
  8
LAYER-1
  6
CONTINUOUS
 62
     7
  5
400
 10
-5.776771
 20
0.347197
 30
0.0
  0
VERTEX
  8
LAYER-1
  6
CONTINUOUS
 62
     7
  5
401
 10
-5.773746
 20
0.352538
 30
0.0
  0
VERTEX
  8
LAYER-1
  6
CONTINUOUS
 62
     7
  5
402
 10
-5.770987
 20
0.358017
 30
0.0
  0
VERTEX
  8
LAYER-1
  6
CONTINUOUS
 62
     7
  5
403
 10
-5.7685
 20
0.363627
 30
0.0
  0
VERTEX
  8
LAYER-1
  6
CONTINUOUS
 62
     7
  5
404
 10
-5.766292
 20
0.369352
 30
0.0
  0
VERTEX
  8
LAYER-1
  6
CONTINUOUS
 62
     7
  5
405
 10
-5.764366
 20
0.37518
 30
0.0
  0
VERTEX
  8
LAYER-1
  6
CONTINUOUS
 62
     7
  5
406
 10
-5.76273
 20
0.381093
 30
0.0
  0
VERTEX
  8
LAYER-1
  6
CONTINUOUS
 62
     7
  5
407
 10
-5.761385
 20
0.38708
 30
0.0
  0
VERTEX
  8
LAYER-1
  6
CONTINUOUS
 62
     7
  5
408
 10
-5.760336
 20
0.393126
 30
0.0
  0
VERTEX
  8
LAYER-1
  6
CONTINUOUS
 62
     7
  5
409
 10
-5.759585
 20
0.399216
 30
0.0
  0
VERTEX
  8
LAYER-1
  6
CONTINUOUS
 62
     7
  5
40A
 10
-5.759134
 20
0.405336
 30
0.0
  0
SEQEND
  8
LAYER-1
  6
CONTINUOUS
  5
40B
  0
POLYLINE
  8
LAYER-1
  6
CONTINUOUS
 62
     7
  5
40C
 66
     1
 10
0.0
 20
0.0
 30
0.0
 40
0.027509
 41
0.027509
  0
VERTEX
  8
LAYER-1
  6
CONTINUOUS
 62
     7
  5
40D
 10
-5.058983
 20
-1.108529
 30
0.0
  0
VERTEX
  8
LAYER-1
  6
CONTINUOUS
 62
     7
  5
40E
 10
-5.058983
 20
3.141471
 30
0.0
  0
SEQEND
  8
LAYER-1
  6
CONTINUOUS
  5
40F
  0
POLYLINE
  8
LAYER-1
  6
CONTINUOUS
 62
     7
  5
410
 66
     1
 10
0.0
 20
0.0
 30
0.0
 40
0.027509
 41
0.027509
  0
VERTEX
  8
LAYER-1
  6
CONTINUOUS
 62
     7
  5
411
 10
-6.058983
 20
-1.108529
 30
0.0
  0
VERTEX
  8
LAYER-1
  6
CONTINUOUS
 62
     7
  5
412
 10
-5.058983
 20
-1.108529
 30
0.0
  0
SEQEND
  8
LAYER-1
  6
CONTINUOUS
  5
413
  0
POLYLINE
  8
LAYER-1
  6
CONTINUOUS
 62
     7
  5
414
 66
     1
 10
0.0
 20
0.0
 30
0.0
 40
0.027509
 41
0.027509
  0
VERTEX
  8
LAYER-1
  6
CONTINUOUS
 62
     7
  5
415
 10
-6.058983
 20
1.186471
 30
0.0
  0
VERTEX
  8
LAYER-1
  6
CONTINUOUS
 62
     7
  5
416
 10
-6.058983
 20
-1.108529
 30
0.0
  0
SEQEND
  8
LAYER-1
  6
CONTINUOUS
  5
417
  0
POLYLINE
  8
LAYER-1
  6
CONTINUOUS
 62
     7
  5
418
 66
     1
 10
0.0
 20
0.0
 30
0.0
 40
0.027509
 41
0.027509
  0
VERTEX
  8
LAYER-1
  6
CONTINUOUS
 62
     7
  5
419
 10
-5.058983
 20
3.141471
 30
0.0
  0
VERTEX
  8
LAYER-1
  6
CONTINUOUS
 62
     7
  5
41A
 10
-5.958983
 20
3.141471
 30
0.0
  0
SEQEND
  8
LAYER-1
  6
CONTINUOUS
  5
41B
  0
POLYLINE
  8
LAYER-1
  6
CONTINUOUS
 62
     7
  5
41C
 66
     1
 10
0.0
 20
0.0
 30
0.0
 40
0.027509
 41
0.027509
  0
VERTEX
  8
LAYER-1
  6
CONTINUOUS
 62
     7
  5
41D
 10
-5.958983
 20
1.186471
 30
0.0
  0
VERTEX
  8
LAYER-1
  6
CONTINUOUS
 62
     7
  5
41E
 10
-6.058983
 20
1.186471
 30
0.0
  0
SEQEND
  8
LAYER-1
  6
CONTINUOUS
  5
41F
  0
POLYLINE
  8
LAYER-1
  6
CONTINUOUS
 62
     7
  5
420
 66
     1
 10
0.0
 20
0.0
 30
0.0
 40
0.027509
 41
0.027509
  0
VERTEX
  8
LAYER-1
  6
CONTINUOUS
 62
     7
  5
421
 10
-5.958983
 20
1.186471
 30
0.0
  0
VERTEX
  8
LAYER-1
  6
CONTINUOUS
 62
     7
  5
422
 10
-5.958983
 20
3.141471
 30
0.0
  0
SEQEND
  8
LAYER-1
  6
CONTINUOUS
  5
423
  0
POLYLINE
  8
LAYER-1
  6
CONTINUOUS
 62
     7
  5
424
 66
     1
 10
0.0
 20
0.0
 30
0.0
 40
0.027509
 41
0.027509
  0
VERTEX
  8
LAYER-1
  6
CONTINUOUS
 62
     7
  5
425
 10
1.302983
 20
-5.088973
 30
0.0
  0
VERTEX
  8
LAYER-1
  6
CONTINUOUS
 62
     7
  5
426
 10
0.802983
 20
-5.088973
 30
0.0
  0
SEQEND
  8
LAYER-1
  6
CONTINUOUS
  5
427
  0
POLYLINE
  8
LAYER-1
  6
CONTINUOUS
 62
     7
  5
428
 66
     1
 10
0.0
 20
0.0
 30
0.0
 40
0.027509
 41
0.027509
  0
VERTEX
  8
LAYER-1
  6
CONTINUOUS
 62
     7
  5
429
 10
1.302983
 20
2.911027
 30
0.0
  0
VERTEX
  8
LAYER-1
  6
CONTINUOUS
 62
     7
  5
42A
 10
1.302983
 20
-5.088973
 30
0.0
  0
SEQEND
  8
LAYER-1
  6
CONTINUOUS
  5
42B
  0
POLYLINE
  8
LAYER-1
  6
CONTINUOUS
 62
     7
  5
42C
 66
     1
 10
0.0
 20
0.0
 30
0.0
 40
0.027509
 41
0.027509
  0
VERTEX
  8
LAYER-1
  6
CONTINUOUS
 62
     7
  5
42D
 10
0.802983
 20
2.911027
 30
0.0
  0
VERTEX
  8
LAYER-1
  6
CONTINUOUS
 62
     7
  5
42E
 10
0.802983
 20
-5.088973
 30
0.0
  0
SEQEND
  8
LAYER-1
  6
CONTINUOUS
  5
42F
  0
POLYLINE
  8
LAYER-1
  6
CONTINUOUS
 62
     7
  5
430
 66
     1
 10
0.0
 20
0.0
 30
0.0
 40
0.027509
 41
0.027509
  0
VERTEX
  8
LAYER-1
  6
CONTINUOUS
 62
     7
  5
431
 10
0.802983
 20
2.911027
 30
0.0
  0
VERTEX
  8
LAYER-1
  6
CONTINUOUS
 62
     7
  5
432
 10
1.302983
 20
2.911027
 30
0.0
  0
SEQEND
  8
LAYER-1
  6
CONTINUOUS
  5
433
  0
POLYLINE
  8
LAYER-1
  6
CONTINUOUS
 62
     7
  5
434
 66
     1
 10
0.0
 20
0.0
 30
0.0
 40
0.027509
 41
0.027509
  0
VERTEX
  8
LAYER-1
  6
CONTINUOUS
 62
     7
  5
435
 10
0.865483
 20
4.411027
 30
0.0
  0
VERTEX
  8
LAYER-1
  6
CONTINUOUS
 62
     7
  5
436
 10
1.240483
 20
4.411027
 30
0.0
  0
SEQEND
  8
LAYER-1
  6
CONTINUOUS
  5
437
  0
LINE
  8
LAYER-1
  6
CONTINUOUS
 62
     7
  5
438
 10
0.802983
 20
-5.088973
 30
0.0
 11
1.302983
 21
-4.963973
 31
0.0
  0
LINE
  8
LAYER-1
  6
CONTINUOUS
 62
     7
  5
439
 10
0.802983
 20
-4.988973
 30
0.0
 11
1.302983
 21
-4.863973
 31
0.0
  0
LINE
  8
LAYER-1
  6
CONTINUOUS
 62
     7
  5
43A
 10
0.802983
 20
-4.888973
 30
0.0
 11
1.302983
 21
-4.763973
 31
0.0
  0
LINE
  8
LAYER-1
  6
CONTINUOUS
 62
     7
  5
43B
 10
0.802983
 20
-4.788973
 30
0.0
 11
1.302983
 21
-4.663973
 31
0.0
  0
LINE
  8
LAYER-1
  6
CONTINUOUS
 62
     7
  5
43C
 10
0.802983
 20
-4.688973
 30
0.0
 11
1.302983
 21
-4.563973
 31
0.0
  0
LINE
  8
LAYER-1
  6
CONTINUOUS
 62
     7
  5
43D
 10
0.802983
 20
-4.588973
 30
0.0
 11
1.302983
 21
-4.463973
 31
0.0
  0
LINE
  8
LAYER-1
  6
CONTINUOUS
 62
     7
  5
43E
 10
0.802983
 20
-4.488973
 30
0.0
 11
1.302983
 21
-4.363973
 31
0.0
  0
LINE
  8
LAYER-1
  6
CONTINUOUS
 62
     7
  5
43F
 10
0.802983
 20
-4.388973
 30
0.0
 11
1.302983
 21
-4.263973
 31
0.0
  0
LINE
  8
LAYER-1
  6
CONTINUOUS
 62
     7
  5
440
 10
0.802983
 20
-4.288973
 30
0.0
 11
1.302983
 21
-4.163973
 31
0.0
  0
LINE
  8
LAYER-1
  6
CONTINUOUS
 62
     7
  5
441
 10
0.802983
 20
-4.188973
 30
0.0
 11
1.302983
 21
-4.063973
 31
0.0
  0
LINE
  8
LAYER-1
  6
CONTINUOUS
 62
     7
  5
442
 10
0.802983
 20
-4.088973
 30
0.0
 11
1.302983
 21
-3.963973
 31
0.0
  0
LINE
  8
LAYER-1
  6
CONTINUOUS
 62
     7
  5
443
 10
0.802983
 20
-3.988973
 30
0.0
 11
1.302983
 21
-3.863973
 31
0.0
  0
LINE
  8
LAYER-1
  6
CONTINUOUS
 62
     7
  5
444
 10
0.802983
 20
-3.888973
 30
0.0
 11
1.302983
 21
-3.763973
 31
0.0
  0
LINE
  8
LAYER-1
  6
CONTINUOUS
 62
     7
  5
445
 10
0.802983
 20
-3.788973
 30
0.0
 11
1.302983
 21
-3.663973
 31
0.0
  0
LINE
  8
LAYER-1
  6
CONTINUOUS
 62
     7
  5
446
 10
0.802983
 20
-3.688973
 30
0.0
 11
1.302983
 21
-3.563973
 31
0.0
  0
LINE
  8
LAYER-1
  6
CONTINUOUS
 62
     7
  5
447
 10
0.802983
 20
-3.588973
 30
0.0
 11
1.302983
 21
-3.463973
 31
0.0
  0
LINE
  8
LAYER-1
  6
CONTINUOUS
 62
     7
  5
448
 10
0.802983
 20
-3.488973
 30
0.0
 11
1.302983
 21
-3.363973
 31
0.0
  0
LINE
  8
LAYER-1
  6
CONTINUOUS
 62
     7
  5
449
 10
0.802983
 20
-3.388973
 30
0.0
 11
1.302983
 21
-3.263973
 31
0.0
  0
LINE
  8
LAYER-1
  6
CONTINUOUS
 62
     7
  5
44A
 10
0.802983
 20
-3.288973
 30
0.0
 11
1.302983
 21
-3.163973
 31
0.0
  0
LINE
  8
LAYER-1
  6
CONTINUOUS
 62
     7
  5
44B
 10
0.802983
 20
-3.188973
 30
0.0
 11
1.302983
 21
-3.063973
 31
0.0
  0
LINE
  8
LAYER-1
  6
CONTINUOUS
 62
     7
  5
44C
 10
0.802983
 20
-3.088973
 30
0.0
 11
1.302983
 21
-2.963973
 31
0.0
  0
LINE
  8
LAYER-1
  6
CONTINUOUS
 62
     7
  5
44D
 10
0.802983
 20
-2.988973
 30
0.0
 11
1.302983
 21
-2.863973
 31
0.0
  0
LINE
  8
LAYER-1
  6
CONTINUOUS
 62
     7
  5
44E
 10
0.802983
 20
-2.888973
 30
0.0
 11
1.302983
 21
-2.763973
 31
0.0
  0
LINE
  8
LAYER-1
  6
CONTINUOUS
 62
     7
  5
44F
 10
0.802983
 20
-2.788973
 30
0.0
 11
1.302983
 21
-2.663973
 31
0.0
  0
LINE
  8
LAYER-1
  6
CONTINUOUS
 62
     7
  5
450
 10
0.802983
 20
-2.688973
 30
0.0
 11
1.302983
 21
-2.563973
 31
0.0
  0
LINE
  8
LAYER-1
  6
CONTINUOUS
 62
     7
  5
451
 10
0.802983
 20
-2.588973
 30
0.0
 11
1.302983
 21
-2.463973
 31
0.0
  0
LINE
  8
LAYER-1
  6
CONTINUOUS
 62
     7
  5
452
 10
0.802983
 20
-2.488973
 30
0.0
 11
1.302983
 21
-2.363973
 31
0.0
  0
LINE
  8
LAYER-1
  6
CONTINUOUS
 62
     7
  5
453
 10
0.802983
 20
-2.388973
 30
0.0
 11
1.302983
 21
-2.263973
 31
0.0
  0
LINE
  8
LAYER-1
  6
CONTINUOUS
 62
     7
  5
454
 10
0.802983
 20
-2.288973
 30
0.0
 11
1.302983
 21
-2.163973
 31
0.0
  0
LINE
  8
LAYER-1
  6
CONTINUOUS
 62
     7
  5
455
 10
0.802983
 20
-2.188973
 30
0.0
 11
1.302983
 21
-2.063973
 31
0.0
  0
LINE
  8
LAYER-1
  6
CONTINUOUS
 62
     7
  5
456
 10
0.802983
 20
-2.088973
 30
0.0
 11
1.302983
 21
-1.963973
 31
0.0
  0
LINE
  8
LAYER-1
  6
CONTINUOUS
 62
     7
  5
457
 10
0.802983
 20
-1.988973
 30
0.0
 11
1.302983
 21
-1.863973
 31
0.0
  0
LINE
  8
LAYER-1
  6
CONTINUOUS
 62
     7
  5
458
 10
0.802983
 20
-1.888973
 30
0.0
 11
1.302983
 21
-1.763973
 31
0.0
  0
LINE
  8
LAYER-1
  6
CONTINUOUS
 62
     7
  5
459
 10
0.802983
 20
-1.788973
 30
0.0
 11
1.302983
 21
-1.663973
 31
0.0
  0
LINE
  8
LAYER-1
  6
CONTINUOUS
 62
     7
  5
45A
 10
0.802983
 20
-1.688973
 30
0.0
 11
1.302983
 21
-1.563973
 31
0.0
  0
LINE
  8
LAYER-1
  6
CONTINUOUS
 62
     7
  5
45B
 10
0.802983
 20
-1.588973
 30
0.0
 11
1.302983
 21
-1.463973
 31
0.0
  0
LINE
  8
LAYER-1
  6
CONTINUOUS
 62
     7
  5
45C
 10
0.802983
 20
-1.488973
 30
0.0
 11
1.302983
 21
-1.363973
 31
0.0
  0
LINE
  8
LAYER-1
  6
CONTINUOUS
 62
     7
  5
45D
 10
0.802983
 20
-1.388973
 30
0.0
 11
1.302983
 21
-1.263973
 31
0.0
  0
LINE
  8
LAYER-1
  6
CONTINUOUS
 62
     7
  5
45E
 10
0.802983
 20
-1.288973
 30
0.0
 11
1.302983
 21
-1.163973
 31
0.0
  0
LINE
  8
LAYER-1
  6
CONTINUOUS
 62
     7
  5
45F
 10
0.802983
 20
-1.188973
 30
0.0
 11
1.302983
 21
-1.063973
 31
0.0
  0
LINE
  8
LAYER-1
  6
CONTINUOUS
 62
     7
  5
460
 10
0.802983
 20
-1.088973
 30
0.0
 11
1.302983
 21
-0.963973
 31
0.0
  0
LINE
  8
LAYER-1
  6
CONTINUOUS
 62
     7
  5
461
 10
0.802983
 20
-0.988973
 30
0.0
 11
1.302983
 21
-0.863973
 31
0.0
  0
LINE
  8
LAYER-1
  6
CONTINUOUS
 62
     7
  5
462
 10
0.802983
 20
-0.888973
 30
0.0
 11
1.302983
 21
-0.763973
 31
0.0
  0
LINE
  8
LAYER-1
  6
CONTINUOUS
 62
     7
  5
463
 10
0.802983
 20
-0.788973
 30
0.0
 11
1.302983
 21
-0.663973
 31
0.0
  0
LINE
  8
LAYER-1
  6
CONTINUOUS
 62
     7
  5
464
 10
0.802983
 20
-0.688973
 30
0.0
 11
1.302983
 21
-0.563973
 31
0.0
  0
LINE
  8
LAYER-1
  6
CONTINUOUS
 62
     7
  5
465
 10
0.802983
 20
-0.588973
 30
0.0
 11
1.302983
 21
-0.463973
 31
0.0
  0
LINE
  8
LAYER-1
  6
CONTINUOUS
 62
     7
  5
466
 10
0.802983
 20
-0.488973
 30
0.0
 11
1.302983
 21
-0.363973
 31
0.0
  0
LINE
  8
LAYER-1
  6
CONTINUOUS
 62
     7
  5
467
 10
0.802983
 20
-0.388973
 30
0.0
 11
1.302983
 21
-0.263973
 31
0.0
  0
LINE
  8
LAYER-1
  6
CONTINUOUS
 62
     7
  5
468
 10
0.802983
 20
-0.288973
 30
0.0
 11
1.302983
 21
-0.163973
 31
0.0
  0
LINE
  8
LAYER-1
  6
CONTINUOUS
 62
     7
  5
469
 10
0.802983
 20
-0.188973
 30
0.0
 11
1.302983
 21
-0.063973
 31
0.0
  0
LINE
  8
LAYER-1
  6
CONTINUOUS
 62
     7
  5
46A
 10
0.802983
 20
-0.088973
 30
0.0
 11
1.302983
 21
0.036027
 31
0.0
  0
LINE
  8
LAYER-1
  6
CONTINUOUS
 62
     7
  5
46B
 10
0.802983
 20
0.011027
 30
0.0
 11
1.302983
 21
0.136027
 31
0.0
  0
LINE
  8
LAYER-1
  6
CONTINUOUS
 62
     7
  5
46C
 10
0.802983
 20
0.111027
 30
0.0
 11
1.302983
 21
0.236027
 31
0.0
  0
LINE
  8
LAYER-1
  6
CONTINUOUS
 62
     7
  5
46D
 10
0.802983
 20
0.211027
 30
0.0
 11
1.302983
 21
0.336027
 31
0.0
  0
LINE
  8
LAYER-1
  6
CONTINUOUS
 62
     7
  5
46E
 10
0.802983
 20
0.311027
 30
0.0
 11
1.302983
 21
0.436027
 31
0.0
  0
LINE
  8
LAYER-1
  6
CONTINUOUS
 62
     7
  5
46F
 10
0.802983
 20
0.411027
 30
0.0
 11
1.302983
 21
0.536027
 31
0.0
  0
LINE
  8
LAYER-1
  6
CONTINUOUS
 62
     7
  5
470
 10
0.802983
 20
0.511027
 30
0.0
 11
1.302983
 21
0.636027
 31
0.0
  0
LINE
  8
LAYER-1
  6
CONTINUOUS
 62
     7
  5
471
 10
0.802983
 20
0.611027
 30
0.0
 11
1.302983
 21
0.736027
 31
0.0
  0
LINE
  8
LAYER-1
  6
CONTINUOUS
 62
     7
  5
472
 10
0.802983
 20
0.711027
 30
0.0
 11
1.302983
 21
0.836027
 31
0.0
  0
LINE
  8
LAYER-1
  6
CONTINUOUS
 62
     7
  5
473
 10
0.802983
 20
0.811027
 30
0.0
 11
1.302983
 21
0.936027
 31
0.0
  0
LINE
  8
LAYER-1
  6
CONTINUOUS
 62
     7
  5
474
 10
0.802983
 20
0.911027
 30
0.0
 11
1.302983
 21
1.036027
 31
0.0
  0
LINE
  8
LAYER-1
  6
CONTINUOUS
 62
     7
  5
475
 10
0.802983
 20
1.011027
 30
0.0
 11
1.302983
 21
1.136027
 31
0.0
  0
LINE
  8
LAYER-1
  6
CONTINUOUS
 62
     7
  5
476
 10
0.802983
 20
1.111027
 30
0.0
 11
1.302983
 21
1.236027
 31
0.0
  0
LINE
  8
LAYER-1
  6
CONTINUOUS
 62
     7
  5
477
 10
0.802983
 20
1.211027
 30
0.0
 11
1.302983
 21
1.336027
 31
0.0
  0
LINE
  8
LAYER-1
  6
CONTINUOUS
 62
     7
  5
478
 10
0.802983
 20
1.311027
 30
0.0
 11
1.302983
 21
1.436027
 31
0.0
  0
LINE
  8
LAYER-1
  6
CONTINUOUS
 62
     7
  5
479
 10
0.802983
 20
1.411027
 30
0.0
 11
1.302983
 21
1.536027
 31
0.0
  0
LINE
  8
LAYER-1
  6
CONTINUOUS
 62
     7
  5
47A
 10
0.802983
 20
1.511027
 30
0.0
 11
1.302983
 21
1.636027
 31
0.0
  0
LINE
  8
LAYER-1
  6
CONTINUOUS
 62
     7
  5
47B
 10
0.802983
 20
1.611027
 30
0.0
 11
1.302983
 21
1.736027
 31
0.0
  0
LINE
  8
LAYER-1
  6
CONTINUOUS
 62
     7
  5
47C
 10
0.802983
 20
1.711027
 30
0.0
 11
1.302983
 21
1.836027
 31
0.0
  0
LINE
  8
LAYER-1
  6
CONTINUOUS
 62
     7
  5
47D
 10
0.802983
 20
1.811027
 30
0.0
 11
1.302983
 21
1.936027
 31
0.0
  0
LINE
  8
LAYER-1
  6
CONTINUOUS
 62
     7
  5
47E
 10
0.802983
 20
1.911027
 30
0.0
 11
1.302983
 21
2.036027
 31
0.0
  0
LINE
  8
LAYER-1
  6
CONTINUOUS
 62
     7
  5
47F
 10
0.802983
 20
2.011027
 30
0.0
 11
1.302983
 21
2.136027
 31
0.0
  0
LINE
  8
LAYER-1
  6
CONTINUOUS
 62
     7
  5
480
 10
0.802983
 20
2.111027
 30
0.0
 11
1.302983
 21
2.236027
 31
0.0
  0
LINE
  8
LAYER-1
  6
CONTINUOUS
 62
     7
  5
481
 10
0.802983
 20
2.211027
 30
0.0
 11
1.302983
 21
2.336027
 31
0.0
  0
LINE
  8
LAYER-1
  6
CONTINUOUS
 62
     7
  5
482
 10
0.802983
 20
2.311027
 30
0.0
 11
1.302983
 21
2.436027
 31
0.0
  0
LINE
  8
LAYER-1
  6
CONTINUOUS
 62
     7
  5
483
 10
0.802983
 20
2.411027
 30
0.0
 11
1.302983
 21
2.536027
 31
0.0
  0
LINE
  8
LAYER-1
  6
CONTINUOUS
 62
     7
  5
484
 10
0.802983
 20
2.511027
 30
0.0
 11
1.302983
 21
2.636027
 31
0.0
  0
LINE
  8
LAYER-1
  6
CONTINUOUS
 62
     7
  5
485
 10
0.802983
 20
2.611027
 30
0.0
 11
1.302983
 21
2.736027
 31
0.0
  0
LINE
  8
LAYER-1
  6
CONTINUOUS
 62
     7
  5
486
 10
0.802983
 20
2.711027
 30
0.0
 11
1.302983
 21
2.836027
 31
0.0
  0
POLYLINE
  8
LAYER-1
  6
CONTINUOUS
 62
     7
  5
487
 66
     1
 10
0.0
 20
0.0
 30
0.0
 70
     5
 40
0.035012
 41
0.035012
 75
     5
  0
VERTEX
  8
LAYER-1
  6
CONTINUOUS
 62
     7
  5
488
 10
0.709483
 20
2.983824
 30
0.0
  0
VERTEX
  8
LAYER-1
  6
CONTINUOUS
 62
     7
  5
489
 10
1.399483
 20
2.983824
 30
0.0
  0
VERTEX
  8
LAYER-1
  6
CONTINUOUS
 62
     7
  5
48A
 10
1.399483
 20
2.923824
 30
0.0
  0
VERTEX
  8
LAYER-1
  6
CONTINUOUS
 62
     7
  5
48B
 10
0.709483
 20
2.923824
 30
0.0
  0
SEQEND
  8
LAYER-1
  6
CONTINUOUS
  5
48C
  0
POLYLINE
  8
LAYER-1
  6
CONTINUOUS
 62
     7
  5
48D
 66
     1
 10
0.0
 20
0.0
 30
0.0
 70
     5
 40
0.035012
 41
0.035012
 75
     5
  0
VERTEX
  8
LAYER-1
  6
CONTINUOUS
 62
     7
  5
48E
 10
0.044483
 20
4.411027
 30
0.0
  0
VERTEX
  8
LAYER-1
  6
CONTINUOUS
 62
     7
  5
48F
 10
2.044483
 20
4.411027
 30
0.0
  0
VERTEX
  8
LAYER-1
  6
CONTINUOUS
 62
     7
  5
490
 10
2.044483
 20
3.978824
 30
0.0
  0
VERTEX
  8
LAYER-1
  6
CONTINUOUS
 62
     7
  5
491
 10
0.044483
 20
3.978824
 30
0.0
  0
SEQEND
  8
LAYER-1
  6
CONTINUOUS
  5
492
  0
POLYLINE
  8
LAYER-1
  6
CONTINUOUS
 62
     7
  5
493
 66
     1
 10
0.0
 20
0.0
 30
0.0
 70
     5
 40
0.035012
 41
0.035012
 75
     5
  0
VERTEX
  8
LAYER-1
  6
CONTINUOUS
 62
     7
  5
494
 10
0.714483
 20
3.978824
 30
0.0
  0
VERTEX
  8
LAYER-1
  6
CONTINUOUS
 62
     7
  5
495
 10
1.394483
 20
3.978824
 30
0.0
  0
VERTEX
  8
LAYER-1
  6
CONTINUOUS
 62
     7
  5
496
 10
1.394483
 20
3.728824
 30
0.0
  0
VERTEX
  8
LAYER-1
  6
CONTINUOUS
 62
     7
  5
497
 10
0.714483
 20
3.728824
 30
0.0
  0
SEQEND
  8
LAYER-1
  6
CONTINUOUS
  5
498
  0
POLYLINE
  8
LAYER-1
  6
CONTINUOUS
 62
     7
  5
499
 66
     1
 10
0.0
 20
0.0
 30
0.0
 70
     5
 40
0.035012
 41
0.035012
 75
     5
  0
VERTEX
  8
LAYER-1
  6
CONTINUOUS
 62
     7
  5
49A
 10
1.764483
 20
4.998824
 30
0.0
  0
VERTEX
  8
LAYER-1
  6
CONTINUOUS
 62
     7
  5
49B
 10
1.984483
 20
4.998824
 30
0.0
  0
VERTEX
  8
LAYER-1
  6
CONTINUOUS
 62
     7
  5
49C
 10
1.984483
 20
4.411027
 30
0.0
  0
VERTEX
  8
LAYER-1
  6
CONTINUOUS
 62
     7
  5
49D
 10
1.764483
 20
4.411027
 30
0.0
  0
SEQEND
  8
LAYER-1
  6
CONTINUOUS
  5
49E
  0
POLYLINE
  8
LAYER-1
  6
CONTINUOUS
 62
     7
  5
49F
 66
     1
 10
0.0
 20
0.0
 30
0.0
 40
0.027509
 41
0.027509
  0
VERTEX
  8
LAYER-1
  6
CONTINUOUS
 62
     7
  5
4A0
 10
0.295
 20
-1.479748
 30
0.0
  0
VERTEX
  8
LAYER-1
  6
CONTINUOUS
 62
     7
  5
4A1
 10
0.295
 20
-0.959662
 30
0.0
  0
SEQEND
  8
LAYER-1
  6
CONTINUOUS
  5
4A2
  0
POLYLINE
  8
LAYER-1
  6
CONTINUOUS
 62
     7
  5
4A3
 66
     1
 10
0.0
 20
0.0
 30
0.0
 40
0.027509
 41
0.027509
  0
VERTEX
  8
LAYER-1
  6
CONTINUOUS
 62
     7
  5
4A4
 10
1.42
 20
-1.479748
 30
0.0
  0
VERTEX
  8
LAYER-1
  6
CONTINUOUS
 62
     7
  5
4A5
 10
0.295
 20
-1.479748
 30
0.0
  0
SEQEND
  8
LAYER-1
  6
CONTINUOUS
  5
4A6
  0
POLYLINE
  8
LAYER-1
  6
CONTINUOUS
 62
     7
  5
4A7
 66
     1
 10
0.0
 20
0.0
 30
0.0
 40
0.027509
 41
0.027509
  0
VERTEX
  8
LAYER-1
  6
CONTINUOUS
 62
     7
  5
4A8
 10
1.42
 20
-1.261105
 30
0.0
  0
VERTEX
  8
LAYER-1
  6
CONTINUOUS
 62
     7
  5
4A9
 10
1.42
 20
-1.479748
 30
0.0
  0
SEQEND
  8
LAYER-1
  6
CONTINUOUS
  5
4AA
  0
POLYLINE
  8
LAYER-1
  6
CONTINUOUS
 62
     7
  5
4AB
 66
     1
 10
0.0
 20
0.0
 30
0.0
 70
     1
 40
0.027509
 41
0.027509
  0
VERTEX
  8
LAYER-1
  6
CONTINUOUS
 62
     7
  5
4AC
 10
0.67
 20
-0.379748
 30
0.0
  0
VERTEX
  8
LAYER-1
  6
CONTINUOUS
 62
     7
  5
4AD
 10
0.669849
 20
-0.373613
 30
0.0
  0
VERTEX
  8
LAYER-1
  6
CONTINUOUS
 62
     7
  5
4AE
 10
0.669398
 20
-0.367494
 30
0.0
  0
VERTEX
  8
LAYER-1
  6
CONTINUOUS
 62
     7
  5
4AF
 10
0.668647
 20
-0.361403
 30
0.0
  0
VERTEX
  8
LAYER-1
  6
CONTINUOUS
 62
     7
  5
4B0
 10
0.667598
 20
-0.355358
 30
0.0
  0
VERTEX
  8
LAYER-1
  6
CONTINUOUS
 62
     7
  5
4B1
 10
0.666253
 20
-0.34937
 30
0.0
  0
VERTEX
  8
LAYER-1
  6
CONTINUOUS
 62
     7
  5
4B2
 10
0.664617
 20
-0.343457
 30
0.0
  0
VERTEX
  8
LAYER-1
  6
CONTINUOUS
 62
     7
  5
4B3
 10
0.662691
 20
-0.337629
 30
0.0
  0
VERTEX
  8
LAYER-1
  6
CONTINUOUS
 62
     7
  5
4B4
 10
0.660483
 20
-0.331905
 30
0.0
  0
VERTEX
  8
LAYER-1
  6
CONTINUOUS
 62
     7
  5
4B5
 10
0.657996
 20
-0.326295
 30
0.0
  0
VERTEX
  8
LAYER-1
  6
CONTINUOUS
 62
     7
  5
4B6
 10
0.655237
 20
-0.320815
 30
0.0
  0
VERTEX
  8
LAYER-1
  6
CONTINUOUS
 62
     7
  5
4B7
 10
0.652212
 20
-0.315475
 30
0.0
  0
VERTEX
  8
LAYER-1
  6
CONTINUOUS
 62
     7
  5
4B8
 10
0.648929
 20
-0.310292
 30
0.0
  0
VERTEX
  8
LAYER-1
  6
CONTINUOUS
 62
     7
  5
4B9
 10
0.645394
 20
-0.305275
 30
0.0
  0
VERTEX
  8
LAYER-1
  6
CONTINUOUS
 62
     7
  5
4BA
 10
0.641619
 20
-0.300438
 30
0.0
  0
VERTEX
  8
LAYER-1
  6
CONTINUOUS
 62
     7
  5
4BB
 10
0.63761
 20
-0.295792
 30
0.0
  0
VERTEX
  8
LAYER-1
  6
CONTINUOUS
 62
     7
  5
4BC
 10
0.633378
 20
-0.291348
 30
0.0
  0
VERTEX
  8
LAYER-1
  6
CONTINUOUS
 62
     7
  5
4BD
 10
0.628932
 20
-0.287116
 30
0.0
  0
VERTEX
  8
LAYER-1
  6
CONTINUOUS
 62
     7
  5
4BE
 10
0.624286
 20
-0.283109
 30
0.0
  0
VERTEX
  8
LAYER-1
  6
CONTINUOUS
 62
     7
  5
4BF
 10
0.619447
 20
-0.279334
 30
0.0
  0
VERTEX
  8
LAYER-1
  6
CONTINUOUS
 62
     7
  5
4C0
 10
0.61443
 20
-0.275802
 30
0.0
  0
VERTEX
  8
LAYER-1
  6
CONTINUOUS
 62
     7
  5
4C1
 10
0.609245
 20
-0.27252
 30
0.0
  0
VERTEX
  8
LAYER-1
  6
CONTINUOUS
 62
     7
  5
4C2
 10
0.603906
 20
-0.269497
 30
0.0
  0
VERTEX
  8
LAYER-1
  6
CONTINUOUS
 62
     7
  5
4C3
 10
0.598424
 20
-0.266738
 30
0.0
  0
VERTEX
  8
LAYER-1
  6
CONTINUOUS
 62
     7
  5
4C4
 10
0.592814
 20
-0.264253
 30
0.0
  0
VERTEX
  8
LAYER-1
  6
CONTINUOUS
 62
     7
  5
4C5
 10
0.587088
 20
-0.262046
 30
0.0
  0
VERTEX
  8
LAYER-1
  6
CONTINUOUS
 62
     7
  5
4C6
 10
0.581262
 20
-0.260123
 30
0.0
  0
VERTEX
  8
LAYER-1
  6
CONTINUOUS
 62
     7
  5
4C7
 10
0.575347
 20
-0.258487
 30
0.0
  0
VERTEX
  8
LAYER-1
  6
CONTINUOUS
 62
     7
  5
4C8
 10
0.56936
 20
-0.257144
 30
0.0
  0
VERTEX
  8
LAYER-1
  6
CONTINUOUS
 62
     7
  5
4C9
 10
0.563313
 20
-0.256097
 30
0.0
  0
VERTEX
  8
LAYER-1
  6
CONTINUOUS
 62
     7
  5
4CA
 10
0.557224
 20
-0.255347
 30
0.0
  0
VERTEX
  8
LAYER-1
  6
CONTINUOUS
 62
     7
  5
4CB
 10
0.551103
 20
-0.254897
 30
0.0
  0
VERTEX
  8
LAYER-1
  6
CONTINUOUS
 62
     7
  5
4CC
 10
0.54503
 20
-0.254748
 30
0.0
  0
VERTEX
  8
LAYER-1
  6
CONTINUOUS
 62
     7
  5
4CD
 10
0.538897
 20
-0.254897
 30
0.0
  0
VERTEX
  8
LAYER-1
  6
CONTINUOUS
 62
     7
  5
4CE
 10
0.532776
 20
-0.255347
 30
0.0
  0
VERTEX
  8
LAYER-1
  6
CONTINUOUS
 62
     7
  5
4CF
 10
0.526687
 20
-0.256097
 30
0.0
  0
VERTEX
  8
LAYER-1
  6
CONTINUOUS
 62
     7
  5
4D0
 10
0.52064
 20
-0.257144
 30
0.0
  0
VERTEX
  8
LAYER-1
  6
CONTINUOUS
 62
     7
  5
4D1
 10
0.514653
 20
-0.258487
 30
0.0
  0
VERTEX
  8
LAYER-1
  6
CONTINUOUS
 62
     7
  5
4D2
 10
0.508738
 20
-0.260123
 30
0.0
  0
VERTEX
  8
LAYER-1
  6
CONTINUOUS
 62
     7
  5
4D3
 10
0.502912
 20
-0.262046
 30
0.0
  0
VERTEX
  8
LAYER-1
  6
CONTINUOUS
 62
     7
  5
4D4
 10
0.497185
 20
-0.264253
 30
0.0
  0
VERTEX
  8
LAYER-1
  6
CONTINUOUS
 62
     7
  5
4D5
 10
0.491576
 20
-0.266738
 30
0.0
  0
VERTEX
  8
LAYER-1
  6
CONTINUOUS
 62
     7
  5
4D6
 10
0.486094
 20
-0.269497
 30
0.0
  0
VERTEX
  8
LAYER-1
  6
CONTINUOUS
 62
     7
  5
4D7
 10
0.480755
 20
-0.27252
 30
0.0
  0
VERTEX
  8
LAYER-1
  6
CONTINUOUS
 62
     7
  5
4D8
 10
0.475569
 20
-0.275802
 30
0.0
  0
VERTEX
  8
LAYER-1
  6
CONTINUOUS
 62
     7
  5
4D9
 10
0.470553
 20
-0.279334
 30
0.0
  0
VERTEX
  8
LAYER-1
  6
CONTINUOUS
 62
     7
  5
4DA
 10
0.465714
 20
-0.283109
 30
0.0
  0
VERTEX
  8
LAYER-1
  6
CONTINUOUS
 62
     7
  5
4DB
 10
0.461068
 20
-0.287116
 30
0.0
  0
VERTEX
  8
LAYER-1
  6
CONTINUOUS
 62
     7
  5
4DC
 10
0.456622
 20
-0.291348
 30
0.0
  0
VERTEX
  8
LAYER-1
  6
CONTINUOUS
 62
     7
  5
4DD
 10
0.45239
 20
-0.295792
 30
0.0
  0
VERTEX
  8
LAYER-1
  6
CONTINUOUS
 62
     7
  5
4DE
 10
0.448381
 20
-0.300438
 30
0.0
  0
VERTEX
  8
LAYER-1
  6
CONTINUOUS
 62
     7
  5
4DF
 10
0.444605
 20
-0.305275
 30
0.0
  0
VERTEX
  8
LAYER-1
  6
CONTINUOUS
 62
     7
  5
4E0
 10
0.441071
 20
-0.310292
 30
0.0
  0
VERTEX
  8
LAYER-1
  6
CONTINUOUS
 62
     7
  5
4E1
 10
0.437788
 20
-0.315475
 30
0.0
  0
VERTEX
  8
LAYER-1
  6
CONTINUOUS
 62
     7
  5
4E2
 10
0.434763
 20
-0.320815
 30
0.0
  0
VERTEX
  8
LAYER-1
  6
CONTINUOUS
 62
     7
  5
4E3
 10
0.432004
 20
-0.326295
 30
0.0
  0
VERTEX
  8
LAYER-1
  6
CONTINUOUS
 62
     7
  5
4E4
 10
0.429517
 20
-0.331905
 30
0.0
  0
VERTEX
  8
LAYER-1
  6
CONTINUOUS
 62
     7
  5
4E5
 10
0.427308
 20
-0.337629
 30
0.0
  0
VERTEX
  8
LAYER-1
  6
CONTINUOUS
 62
     7
  5
4E6
 10
0.425383
 20
-0.343457
 30
0.0
  0
VERTEX
  8
LAYER-1
  6
CONTINUOUS
 62
     7
  5
4E7
 10
0.423747
 20
-0.34937
 30
0.0
  0
VERTEX
  8
LAYER-1
  6
CONTINUOUS
 62
     7
  5
4E8
 10
0.422402
 20
-0.355358
 30
0.0
  0
VERTEX
  8
LAYER-1
  6
CONTINUOUS
 62
     7
  5
4E9
 10
0.421353
 20
-0.361403
 30
0.0
  0
VERTEX
  8
LAYER-1
  6
CONTINUOUS
 62
     7
  5
4EA
 10
0.420602
 20
-0.367494
 30
0.0
  0
VERTEX
  8
LAYER-1
  6
CONTINUOUS
 62
     7
  5
4EB
 10
0.420151
 20
-0.373613
 30
0.0
  0
VERTEX
  8
LAYER-1
  6
CONTINUOUS
 62
     7
  5
4EC
 10
0.42
 20
-0.379748
 30
0.0
  0
VERTEX
  8
LAYER-1
  6
CONTINUOUS
 62
     7
  5
4ED
 10
0.420151
 20
-0.385883
 30
0.0
  0
VERTEX
  8
LAYER-1
  6
CONTINUOUS
 62
     7
  5
4EE
 10
0.420602
 20
-0.392002
 30
0.0
  0
VERTEX
  8
LAYER-1
  6
CONTINUOUS
 62
     7
  5
4EF
 10
0.421353
 20
-0.398093
 30
0.0
  0
VERTEX
  8
LAYER-1
  6
CONTINUOUS
 62
     7
  5
4F0
 10
0.422402
 20
-0.404138
 30
0.0
  0
VERTEX
  8
LAYER-1
  6
CONTINUOUS
 62
     7
  5
4F1
 10
0.423747
 20
-0.410126
 30
0.0
  0
VERTEX
  8
LAYER-1
  6
CONTINUOUS
 62
     7
  5
4F2
 10
0.425383
 20
-0.416039
 30
0.0
  0
VERTEX
  8
LAYER-1
  6
CONTINUOUS
 62
     7
  5
4F3
 10
0.427308
 20
-0.421867
 30
0.0
  0
VERTEX
  8
LAYER-1
  6
CONTINUOUS
 62
     7
  5
4F4
 10
0.429517
 20
-0.427591
 30
0.0
  0
VERTEX
  8
LAYER-1
  6
CONTINUOUS
 62
     7
  5
4F5
 10
0.432004
 20
-0.433201
 30
0.0
  0
VERTEX
  8
LAYER-1
  6
CONTINUOUS
 62
     7
  5
4F6
 10
0.434763
 20
-0.438681
 30
0.0
  0
VERTEX
  8
LAYER-1
  6
CONTINUOUS
 62
     7
  5
4F7
 10
0.437788
 20
-0.444021
 30
0.0
  0
VERTEX
  8
LAYER-1
  6
CONTINUOUS
 62
     7
  5
4F8
 10
0.441071
 20
-0.449204
 30
0.0
  0
VERTEX
  8
LAYER-1
  6
CONTINUOUS
 62
     7
  5
4F9
 10
0.444605
 20
-0.454221
 30
0.0
  0
VERTEX
  8
LAYER-1
  6
CONTINUOUS
 62
     7
  5
4FA
 10
0.448381
 20
-0.459058
 30
0.0
  0
VERTEX
  8
LAYER-1
  6
CONTINUOUS
 62
     7
  5
4FB
 10
0.45239
 20
-0.463704
 30
0.0
  0
VERTEX
  8
LAYER-1
  6
CONTINUOUS
 62
     7
  5
4FC
 10
0.456622
 20
-0.468148
 30
0.0
  0
VERTEX
  8
LAYER-1
  6
CONTINUOUS
 62
     7
  5
4FD
 10
0.461068
 20
-0.47238
 30
0.0
  0
VERTEX
  8
LAYER-1
  6
CONTINUOUS
 62
     7
  5
4FE
 10
0.465714
 20
-0.476387
 30
0.0
  0
VERTEX
  8
LAYER-1
  6
CONTINUOUS
 62
     7
  5
4FF
 10
0.470553
 20
-0.480162
 30
0.0
  0
VERTEX
  8
LAYER-1
  6
CONTINUOUS
 62
     7
  5
500
 10
0.475569
 20
-0.483694
 30
0.0
  0
VERTEX
  8
LAYER-1
  6
CONTINUOUS
 62
     7
  5
501
 10
0.480755
 20
-0.486976
 30
0.0
  0
VERTEX
  8
LAYER-1
  6
CONTINUOUS
 62
     7
  5
502
 10
0.486094
 20
-0.489999
 30
0.0
  0
VERTEX
  8
LAYER-1
  6
CONTINUOUS
 62
     7
  5
503
 10
0.491576
 20
-0.492758
 30
0.0
  0
VERTEX
  8
LAYER-1
  6
CONTINUOUS
 62
     7
  5
504
 10
0.497185
 20
-0.495243
 30
0.0
  0
VERTEX
  8
LAYER-1
  6
CONTINUOUS
 62
     7
  5
505
 10
0.502912
 20
-0.49745
 30
0.0
  0
VERTEX
  8
LAYER-1
  6
CONTINUOUS
 62
     7
  5
506
 10
0.508738
 20
-0.499373
 30
0.0
  0
VERTEX
  8
LAYER-1
  6
CONTINUOUS
 62
     7
  5
507
 10
0.514653
 20
-0.501009
 30
0.0
  0
VERTEX
  8
LAYER-1
  6
CONTINUOUS
 62
     7
  5
508
 10
0.52064
 20
-0.502352
 30
0.0
  0
VERTEX
  8
LAYER-1
  6
CONTINUOUS
 62
     7
  5
509
 10
0.526687
 20
-0.5034
 30
0.0
  0
VERTEX
  8
LAYER-1
  6
CONTINUOUS
 62
     7
  5
50A
 10
0.532776
 20
-0.504149
 30
0.0
  0
VERTEX
  8
LAYER-1
  6
CONTINUOUS
 62
     7
  5
50B
 10
0.538897
 20
-0.504599
 30
0.0
  0
VERTEX
  8
LAYER-1
  6
CONTINUOUS
 62
     7
  5
50C
 10
0.54503
 20
-0.504748
 30
0.0
  0
VERTEX
  8
LAYER-1
  6
CONTINUOUS
 62
     7
  5
50D
 10
0.551103
 20
-0.504599
 30
0.0
  0
VERTEX
  8
LAYER-1
  6
CONTINUOUS
 62
     7
  5
50E
 10
0.557224
 20
-0.504149
 30
0.0
  0
VERTEX
  8
LAYER-1
  6
CONTINUOUS
 62
     7
  5
50F
 10
0.563313
 20
-0.5034
 30
0.0
  0
VERTEX
  8
LAYER-1
  6
CONTINUOUS
 62
     7
  5
510
 10
0.56936
 20
-0.502352
 30
0.0
  0
VERTEX
  8
LAYER-1
  6
CONTINUOUS
 62
     7
  5
511
 10
0.575347
 20
-0.501009
 30
0.0
  0
VERTEX
  8
LAYER-1
  6
CONTINUOUS
 62
     7
  5
512
 10
0.581262
 20
-0.499373
 30
0.0
  0
VERTEX
  8
LAYER-1
  6
CONTINUOUS
 62
     7
  5
513
 10
0.587088
 20
-0.49745
 30
0.0
  0
VERTEX
  8
LAYER-1
  6
CONTINUOUS
 62
     7
  5
514
 10
0.592814
 20
-0.495243
 30
0.0
  0
VERTEX
  8
LAYER-1
  6
CONTINUOUS
 62
     7
  5
515
 10
0.598424
 20
-0.492758
 30
0.0
  0
VERTEX
  8
LAYER-1
  6
CONTINUOUS
 62
     7
  5
516
 10
0.603906
 20
-0.489999
 30
0.0
  0
VERTEX
  8
LAYER-1
  6
CONTINUOUS
 62
     7
  5
517
 10
0.609245
 20
-0.486976
 30
0.0
  0
VERTEX
  8
LAYER-1
  6
CONTINUOUS
 62
     7
  5
518
 10
0.61443
 20
-0.483694
 30
0.0
  0
VERTEX
  8
LAYER-1
  6
CONTINUOUS
 62
     7
  5
519
 10
0.619447
 20
-0.480162
 30
0.0
  0
VERTEX
  8
LAYER-1
  6
CONTINUOUS
 62
     7
  5
51A
 10
0.624286
 20
-0.476387
 30
0.0
  0
VERTEX
  8
LAYER-1
  6
CONTINUOUS
 62
     7
  5
51B
 10
0.628932
 20
-0.47238
 30
0.0
  0
VERTEX
  8
LAYER-1
  6
CONTINUOUS
 62
     7
  5
51C
 10
0.633378
 20
-0.468148
 30
0.0
  0
VERTEX
  8
LAYER-1
  6
CONTINUOUS
 62
     7
  5
51D
 10
0.63761
 20
-0.463704
 30
0.0
  0
VERTEX
  8
LAYER-1
  6
CONTINUOUS
 62
     7
  5
51E
 10
0.641619
 20
-0.459058
 30
0.0
  0
VERTEX
  8
LAYER-1
  6
CONTINUOUS
 62
     7
  5
51F
 10
0.645394
 20
-0.454221
 30
0.0
  0
VERTEX
  8
LAYER-1
  6
CONTINUOUS
 62
     7
  5
520
 10
0.648929
 20
-0.449204
 30
0.0
  0
VERTEX
  8
LAYER-1
  6
CONTINUOUS
 62
     7
  5
521
 10
0.652212
 20
-0.444021
 30
0.0
  0
VERTEX
  8
LAYER-1
  6
CONTINUOUS
 62
     7
  5
522
 10
0.655237
 20
-0.438681
 30
0.0
  0
VERTEX
  8
LAYER-1
  6
CONTINUOUS
 62
     7
  5
523
 10
0.657996
 20
-0.433201
 30
0.0
  0
VERTEX
  8
LAYER-1
  6
CONTINUOUS
 62
     7
  5
524
 10
0.660483
 20
-0.427591
 30
0.0
  0
VERTEX
  8
LAYER-1
  6
CONTINUOUS
 62
     7
  5
525
 10
0.662691
 20
-0.421867
 30
0.0
  0
VERTEX
  8
LAYER-1
  6
CONTINUOUS
 62
     7
  5
526
 10
0.664617
 20
-0.416039
 30
0.0
  0
VERTEX
  8
LAYER-1
  6
CONTINUOUS
 62
     7
  5
527
 10
0.666253
 20
-0.410126
 30
0.0
  0
VERTEX
  8
LAYER-1
  6
CONTINUOUS
 62
     7
  5
528
 10
0.667598
 20
-0.404138
 30
0.0
  0
VERTEX
  8
LAYER-1
  6
CONTINUOUS
 62
     7
  5
529
 10
0.668647
 20
-0.398093
 30
0.0
  0
VERTEX
  8
LAYER-1
  6
CONTINUOUS
 62
     7
  5
52A
 10
0.669398
 20
-0.392002
 30
0.0
  0
VERTEX
  8
LAYER-1
  6
CONTINUOUS
 62
     7
  5
52B
 10
0.669849
 20
-0.385883
 30
0.0
  0
SEQEND
  8
LAYER-1
  6
CONTINUOUS
  5
52C
  0
LINE
  8
LAYER-1
  6
MCDASH01
 62
     7
  5
52D
 10
0.795
 20
0.020252
 30
0.0
 11
0.795
 21
-1.479748
 31
0.0
  0
LINE
  8
LAYER-1
  6
MCDASH01
 62
     7
  5
52E
 10
1.295
 20
0.020252
 30
0.0
 11
1.295
 21
-1.479748
 31
0.0
  0
POLYLINE
  8
LAYER-1
  6
CONTINUOUS
 62
     7
  5
52F
 66
     1
 10
0.0
 20
0.0
 30
0.0
 70
     1
 40
0.027509
 41
0.027509
  0
VERTEX
  8
LAYER-1
  6
CONTINUOUS
 62
     7
  5
530
 10
0.235
 20
-1.479748
 30
0.0
  0
VERTEX
  8
LAYER-1
  6
CONTINUOUS
 62
     7
  5
531
 10
1.86
 20
-1.479748
 30
0.0
  0
VERTEX
  8
LAYER-1
  6
CONTINUOUS
 62
     7
  5
532
 10
1.86
 20
-2.417943
 30
0.0
  0
VERTEX
  8
LAYER-1
  6
CONTINUOUS
 62
     7
  5
533
 10
0.235
 20
-2.417943
 30
0.0
  0
SEQEND
  8
LAYER-1
  6
CONTINUOUS
  5
534
  0
POLYLINE
  8
LAYER-1
  6
CONTINUOUS
 62
     7
  5
535
 66
     1
 10
0.0
 20
0.0
 30
0.0
 70
     1
 40
0.027509
 41
0.027509
  0
VERTEX
  8
LAYER-1
  6
CONTINUOUS
 62
     7
  5
536
 10
1.36
 20
-1.948845
 30
0.0
  0
VERTEX
  8
LAYER-1
  6
CONTINUOUS
 62
     7
  5
537
 10
1.359623
 20
-1.933507
 30
0.0
  0
VERTEX
  8
LAYER-1
  6
CONTINUOUS
 62
     7
  5
538
 10
1.358495
 20
-1.91821
 30
0.0
  0
VERTEX
  8
LAYER-1
  6
CONTINUOUS
 62
     7
  5
539
 10
1.356617
 20
-1.902983
 30
0.0
  0
VERTEX
  8
LAYER-1
  6
CONTINUOUS
 62
     7
  5
53A
 10
1.353994
 20
-1.88787
 30
0.0
  0
VERTEX
  8
LAYER-1
  6
CONTINUOUS
 62
     7
  5
53B
 10
1.350633
 20
-1.8729
 30
0.0
  0
VERTEX
  8
LAYER-1
  6
CONTINUOUS
 62
     7
  5
53C
 10
1.346542
 20
-1.858117
 30
0.0
  0
VERTEX
  8
LAYER-1
  6
CONTINUOUS
 62
     7
  5
53D
 10
1.341728
 20
-1.843549
 30
0.0
  0
VERTEX
  8
LAYER-1
  6
CONTINUOUS
 62
     7
  5
53E
 10
1.336208
 20
-1.829239
 30
0.0
  0
VERTEX
  8
LAYER-1
  6
CONTINUOUS
 62
     7
  5
53F
 10
1.32999
 20
-1.815213
 30
0.0
  0
VERTEX
  8
LAYER-1
  6
CONTINUOUS
 62
     7
  5
540
 10
1.323093
 20
-1.801513
 30
0.0
  0
VERTEX
  8
LAYER-1
  6
CONTINUOUS
 62
     7
  5
541
 10
1.315529
 20
-1.788163
 30
0.0
  0
VERTEX
  8
LAYER-1
  6
CONTINUOUS
 62
     7
  5
542
 10
1.307322
 20
-1.775205
 30
0.0
  0
VERTEX
  8
LAYER-1
  6
CONTINUOUS
 62
     7
  5
543
 10
1.298486
 20
-1.762662
 30
0.0
  0
VERTEX
  8
LAYER-1
  6
CONTINUOUS
 62
     7
  5
544
 10
1.289048
 20
-1.750571
 30
0.0
  0
VERTEX
  8
LAYER-1
  6
CONTINUOUS
 62
     7
  5
545
 10
1.279025
 20
-1.738954
 30
0.0
  0
VERTEX
  8
LAYER-1
  6
CONTINUOUS
 62
     7
  5
546
 10
1.268444
 20
-1.727845
 30
0.0
  0
VERTEX
  8
LAYER-1
  6
CONTINUOUS
 62
     7
  5
547
 10
1.257331
 20
-1.717266
 30
0.0
  0
VERTEX
  8
LAYER-1
  6
CONTINUOUS
 62
     7
  5
548
 10
1.245715
 20
-1.707249
 30
0.0
  0
VERTEX
  8
LAYER-1
  6
CONTINUOUS
 62
     7
  5
549
 10
1.233618
 20
-1.697811
 30
0.0
  0
VERTEX
  8
LAYER-1
  6
CONTINUOUS
 62
     7
  5
54A
 10
1.221076
 20
-1.688981
 30
0.0
  0
VERTEX
  8
LAYER-1
  6
CONTINUOUS
 62
     7
  5
54B
 10
1.208112
 20
-1.680774
 30
0.0
  0
VERTEX
  8
LAYER-1
  6
CONTINUOUS
 62
     7
  5
54C
 10
1.194766
 20
-1.673217
 30
0.0
  0
VERTEX
  8
LAYER-1
  6
CONTINUOUS
 62
     7
  5
54D
 10
1.181059
 20
-1.666321
 30
0.0
  0
VERTEX
  8
LAYER-1
  6
CONTINUOUS
 62
     7
  5
54E
 10
1.167036
 20
-1.660108
 30
0.0
  0
VERTEX
  8
LAYER-1
  6
CONTINUOUS
 62
     7
  5
54F
 10
1.15272
 20
-1.65459
 30
0.0
  0
VERTEX
  8
LAYER-1
  6
CONTINUOUS
 62
     7
  5
550
 10
1.138155
 20
-1.649782
 30
0.0
  0
VERTEX
  8
LAYER-1
  6
CONTINUOUS
 62
     7
  5
551
 10
1.123367
 20
-1.645693
 30
0.0
  0
VERTEX
  8
LAYER-1
  6
CONTINUOUS
 62
     7
  5
552
 10
1.1084
 20
-1.642336
 30
0.0
  0
VERTEX
  8
LAYER-1
  6
CONTINUOUS
 62
     7
  5
553
 10
1.093283
 20
-1.639717
 30
0.0
  0
VERTEX
  8
LAYER-1
  6
CONTINUOUS
 62
     7
  5
554
 10
1.078059
 20
-1.637843
 30
0.0
  0
VERTEX
  8
LAYER-1
  6
CONTINUOUS
 62
     7
  5
555
 10
1.062757
 20
-1.636718
 30
0.0
  0
VERTEX
  8
LAYER-1
  6
CONTINUOUS
 62
     7
  5
556
 10
1.047576
 20
-1.636345
 30
0.0
  0
VERTEX
  8
LAYER-1
  6
CONTINUOUS
 62
     7
  5
557
 10
1.032242
 20
-1.636718
 30
0.0
  0
VERTEX
  8
LAYER-1
  6
CONTINUOUS
 62
     7
  5
558
 10
1.016941
 20
-1.637843
 30
0.0
  0
VERTEX
  8
LAYER-1
  6
CONTINUOUS
 62
     7
  5
559
 10
1.001717
 20
-1.639717
 30
0.0
  0
VERTEX
  8
LAYER-1
  6
CONTINUOUS
 62
     7
  5
55A
 10
0.986599
 20
-1.642336
 30
0.0
  0
VERTEX
  8
LAYER-1
  6
CONTINUOUS
 62
     7
  5
55B
 10
0.971633
 20
-1.645693
 30
0.0
  0
VERTEX
  8
LAYER-1
  6
CONTINUOUS
 62
     7
  5
55C
 10
0.956845
 20
-1.649782
 30
0.0
  0
VERTEX
  8
LAYER-1
  6
CONTINUOUS
 62
     7
  5
55D
 10
0.94228
 20
-1.65459
 30
0.0
  0
VERTEX
  8
LAYER-1
  6
CONTINUOUS
 62
     7
  5
55E
 10
0.927964
 20
-1.660108
 30
0.0
  0
VERTEX
  8
LAYER-1
  6
CONTINUOUS
 62
     7
  5
55F
 10
0.91394
 20
-1.666321
 30
0.0
  0
VERTEX
  8
LAYER-1
  6
CONTINUOUS
 62
     7
  5
560
 10
0.900234
 20
-1.673217
 30
0.0
  0
VERTEX
  8
LAYER-1
  6
CONTINUOUS
 62
     7
  5
561
 10
0.886887
 20
-1.680774
 30
0.0
  0
VERTEX
  8
LAYER-1
  6
CONTINUOUS
 62
     7
  5
562
 10
0.873923
 20
-1.688981
 30
0.0
  0
VERTEX
  8
LAYER-1
  6
CONTINUOUS
 62
     7
  5
563
 10
0.861382
 20
-1.697811
 30
0.0
  0
VERTEX
  8
LAYER-1
  6
CONTINUOUS
 62
     7
  5
564
 10
0.849285
 20
-1.707249
 30
0.0
  0
VERTEX
  8
LAYER-1
  6
CONTINUOUS
 62
     7
  5
565
 10
0.837669
 20
-1.717266
 30
0.0
  0
VERTEX
  8
LAYER-1
  6
CONTINUOUS
 62
     7
  5
566
 10
0.826556
 20
-1.727845
 30
0.0
  0
VERTEX
  8
LAYER-1
  6
CONTINUOUS
 62
     7
  5
567
 10
0.815975
 20
-1.738954
 30
0.0
  0
VERTEX
  8
LAYER-1
  6
CONTINUOUS
 62
     7
  5
568
 10
0.805952
 20
-1.750571
 30
0.0
  0
VERTEX
  8
LAYER-1
  6
CONTINUOUS
 62
     7
  5
569
 10
0.796514
 20
-1.762662
 30
0.0
  0
VERTEX
  8
LAYER-1
  6
CONTINUOUS
 62
     7
  5
56A
 10
0.787678
 20
-1.775205
 30
0.0
  0
VERTEX
  8
LAYER-1
  6
CONTINUOUS
 62
     7
  5
56B
 10
0.779471
 20
-1.788163
 30
0.0
  0
VERTEX
  8
LAYER-1
  6
CONTINUOUS
 62
     7
  5
56C
 10
0.771907
 20
-1.801513
 30
0.0
  0
VERTEX
  8
LAYER-1
  6
CONTINUOUS
 62
     7
  5
56D
 10
0.76501
 20
-1.815213
 30
0.0
  0
VERTEX
  8
LAYER-1
  6
CONTINUOUS
 62
     7
  5
56E
 10
0.758792
 20
-1.829239
 30
0.0
  0
VERTEX
  8
LAYER-1
  6
CONTINUOUS
 62
     7
  5
56F
 10
0.753271
 20
-1.843549
 30
0.0
  0
VERTEX
  8
LAYER-1
  6
CONTINUOUS
 62
     7
  5
570
 10
0.748458
 20
-1.858117
 30
0.0
  0
VERTEX
  8
LAYER-1
  6
CONTINUOUS
 62
     7
  5
571
 10
0.744367
 20
-1.8729
 30
0.0
  0
VERTEX
  8
LAYER-1
  6
CONTINUOUS
 62
     7
  5
572
 10
0.741006
 20
-1.88787
 30
0.0
  0
VERTEX
  8
LAYER-1
  6
CONTINUOUS
 62
     7
  5
573
 10
0.738383
 20
-1.902983
 30
0.0
  0
VERTEX
  8
LAYER-1
  6
CONTINUOUS
 62
     7
  5
574
 10
0.736505
 20
-1.91821
 30
0.0
  0
VERTEX
  8
LAYER-1
  6
CONTINUOUS
 62
     7
  5
575
 10
0.735376
 20
-1.933507
 30
0.0
  0
VERTEX
  8
LAYER-1
  6
CONTINUOUS
 62
     7
  5
576
 10
0.735
 20
-1.948845
 30
0.0
  0
VERTEX
  8
LAYER-1
  6
CONTINUOUS
 62
     7
  5
577
 10
0.735376
 20
-1.964184
 30
0.0
  0
VERTEX
  8
LAYER-1
  6
CONTINUOUS
 62
     7
  5
578
 10
0.736505
 20
-1.979481
 30
0.0
  0
VERTEX
  8
LAYER-1
  6
CONTINUOUS
 62
     7
  5
579
 10
0.738383
 20
-1.994708
 30
0.0
  0
VERTEX
  8
LAYER-1
  6
CONTINUOUS
 62
     7
  5
57A
 10
0.741006
 20
-2.009821
 30
0.0
  0
VERTEX
  8
LAYER-1
  6
CONTINUOUS
 62
     7
  5
57B
 10
0.744367
 20
-2.024791
 30
0.0
  0
VERTEX
  8
LAYER-1
  6
CONTINUOUS
 62
     7
  5
57C
 10
0.748458
 20
-2.039573
 30
0.0
  0
VERTEX
  8
LAYER-1
  6
CONTINUOUS
 62
     7
  5
57D
 10
0.753271
 20
-2.054142
 30
0.0
  0
VERTEX
  8
LAYER-1
  6
CONTINUOUS
 62
     7
  5
57E
 10
0.758792
 20
-2.068452
 30
0.0
  0
VERTEX
  8
LAYER-1
  6
CONTINUOUS
 62
     7
  5
57F
 10
0.76501
 20
-2.082478
 30
0.0
  0
VERTEX
  8
LAYER-1
  6
CONTINUOUS
 62
     7
  5
580
 10
0.771907
 20
-2.096178
 30
0.0
  0
VERTEX
  8
LAYER-1
  6
CONTINUOUS
 62
     7
  5
581
 10
0.779471
 20
-2.109527
 30
0.0
  0
VERTEX
  8
LAYER-1
  6
CONTINUOUS
 62
     7
  5
582
 10
0.787678
 20
-2.122485
 30
0.0
  0
VERTEX
  8
LAYER-1
  6
CONTINUOUS
 62
     7
  5
583
 10
0.796514
 20
-2.135029
 30
0.0
  0
VERTEX
  8
LAYER-1
  6
CONTINUOUS
 62
     7
  5
584
 10
0.805952
 20
-2.14712
 30
0.0
  0
VERTEX
  8
LAYER-1
  6
CONTINUOUS
 62
     7
  5
585
 10
0.815975
 20
-2.158736
 30
0.0
  0
VERTEX
  8
LAYER-1
  6
CONTINUOUS
 62
     7
  5
586
 10
0.826556
 20
-2.169846
 30
0.0
  0
VERTEX
  8
LAYER-1
  6
CONTINUOUS
 62
     7
  5
587
 10
0.837669
 20
-2.180425
 30
0.0
  0
VERTEX
  8
LAYER-1
  6
CONTINUOUS
 62
     7
  5
588
 10
0.849285
 20
-2.190442
 30
0.0
  0
VERTEX
  8
LAYER-1
  6
CONTINUOUS
 62
     7
  5
589
 10
0.861382
 20
-2.19988
 30
0.0
  0
VERTEX
  8
LAYER-1
  6
CONTINUOUS
 62
     7
  5
58A
 10
0.873923
 20
-2.20871
 30
0.0
  0
VERTEX
  8
LAYER-1
  6
CONTINUOUS
 62
     7
  5
58B
 10
0.886887
 20
-2.216916
 30
0.0
  0
VERTEX
  8
LAYER-1
  6
CONTINUOUS
 62
     7
  5
58C
 10
0.900234
 20
-2.224474
 30
0.0
  0
VERTEX
  8
LAYER-1
  6
CONTINUOUS
 62
     7
  5
58D
 10
0.91394
 20
-2.23137
 30
0.0
  0
VERTEX
  8
LAYER-1
  6
CONTINUOUS
 62
     7
  5
58E
 10
0.927964
 20
-2.237582
 30
0.0
  0
VERTEX
  8
LAYER-1
  6
CONTINUOUS
 62
     7
  5
58F
 10
0.94228
 20
-2.243101
 30
0.0
  0
VERTEX
  8
LAYER-1
  6
CONTINUOUS
 62
     7
  5
590
 10
0.956845
 20
-2.247909
 30
0.0
  0
VERTEX
  8
LAYER-1
  6
CONTINUOUS
 62
     7
  5
591
 10
0.971633
 20
-2.251998
 30
0.0
  0
VERTEX
  8
LAYER-1
  6
CONTINUOUS
 62
     7
  5
592
 10
0.986599
 20
-2.255355
 30
0.0
  0
VERTEX
  8
LAYER-1
  6
CONTINUOUS
 62
     7
  5
593
 10
1.001717
 20
-2.257974
 30
0.0
  0
VERTEX
  8
LAYER-1
  6
CONTINUOUS
 62
     7
  5
594
 10
1.016941
 20
-2.259848
 30
0.0
  0
VERTEX
  8
LAYER-1
  6
CONTINUOUS
 62
     7
  5
595
 10
1.032242
 20
-2.260973
 30
0.0
  0
VERTEX
  8
LAYER-1
  6
CONTINUOUS
 62
     7
  5
596
 10
1.047576
 20
-2.261345
 30
0.0
  0
VERTEX
  8
LAYER-1
  6
CONTINUOUS
 62
     7
  5
597
 10
1.062757
 20
-2.260973
 30
0.0
  0
VERTEX
  8
LAYER-1
  6
CONTINUOUS
 62
     7
  5
598
 10
1.078059
 20
-2.259848
 30
0.0
  0
VERTEX
  8
LAYER-1
  6
CONTINUOUS
 62
     7
  5
599
 10
1.093283
 20
-2.257974
 30
0.0
  0
VERTEX
  8
LAYER-1
  6
CONTINUOUS
 62
     7
  5
59A
 10
1.1084
 20
-2.255355
 30
0.0
  0
VERTEX
  8
LAYER-1
  6
CONTINUOUS
 62
     7
  5
59B
 10
1.123367
 20
-2.251998
 30
0.0
  0
VERTEX
  8
LAYER-1
  6
CONTINUOUS
 62
     7
  5
59C
 10
1.138155
 20
-2.247909
 30
0.0
  0
VERTEX
  8
LAYER-1
  6
CONTINUOUS
 62
     7
  5
59D
 10
1.15272
 20
-2.243101
 30
0.0
  0
VERTEX
  8
LAYER-1
  6
CONTINUOUS
 62
     7
  5
59E
 10
1.167036
 20
-2.237582
 30
0.0
  0
VERTEX
  8
LAYER-1
  6
CONTINUOUS
 62
     7
  5
59F
 10
1.181059
 20
-2.23137
 30
0.0
  0
VERTEX
  8
LAYER-1
  6
CONTINUOUS
 62
     7
  5
5A0
 10
1.194766
 20
-2.224474
 30
0.0
  0
VERTEX
  8
LAYER-1
  6
CONTINUOUS
 62
     7
  5
5A1
 10
1.208112
 20
-2.216916
 30
0.0
  0
VERTEX
  8
LAYER-1
  6
CONTINUOUS
 62
     7
  5
5A2
 10
1.221076
 20
-2.20871
 30
0.0
  0
VERTEX
  8
LAYER-1
  6
CONTINUOUS
 62
     7
  5
5A3
 10
1.233618
 20
-2.19988
 30
0.0
  0
VERTEX
  8
LAYER-1
  6
CONTINUOUS
 62
     7
  5
5A4
 10
1.245715
 20
-2.190442
 30
0.0
  0
VERTEX
  8
LAYER-1
  6
CONTINUOUS
 62
     7
  5
5A5
 10
1.257331
 20
-2.180425
 30
0.0
  0
VERTEX
  8
LAYER-1
  6
CONTINUOUS
 62
     7
  5
5A6
 10
1.268444
 20
-2.169846
 30
0.0
  0
VERTEX
  8
LAYER-1
  6
CONTINUOUS
 62
     7
  5
5A7
 10
1.279025
 20
-2.158736
 30
0.0
  0
VERTEX
  8
LAYER-1
  6
CONTINUOUS
 62
     7
  5
5A8
 10
1.289048
 20
-2.14712
 30
0.0
  0
VERTEX
  8
LAYER-1
  6
CONTINUOUS
 62
     7
  5
5A9
 10
1.298486
 20
-2.135029
 30
0.0
  0
VERTEX
  8
LAYER-1
  6
CONTINUOUS
 62
     7
  5
5AA
 10
1.307322
 20
-2.122485
 30
0.0
  0
VERTEX
  8
LAYER-1
  6
CONTINUOUS
 62
     7
  5
5AB
 10
1.315529
 20
-2.109527
 30
0.0
  0
VERTEX
  8
LAYER-1
  6
CONTINUOUS
 62
     7
  5
5AC
 10
1.323093
 20
-2.096178
 30
0.0
  0
VERTEX
  8
LAYER-1
  6
CONTINUOUS
 62
     7
  5
5AD
 10
1.32999
 20
-2.082478
 30
0.0
  0
VERTEX
  8
LAYER-1
  6
CONTINUOUS
 62
     7
  5
5AE
 10
1.336208
 20
-2.068452
 30
0.0
  0
VERTEX
  8
LAYER-1
  6
CONTINUOUS
 62
     7
  5
5AF
 10
1.341728
 20
-2.054142
 30
0.0
  0
VERTEX
  8
LAYER-1
  6
CONTINUOUS
 62
     7
  5
5B0
 10
1.346542
 20
-2.039573
 30
0.0
  0
VERTEX
  8
LAYER-1
  6
CONTINUOUS
 62
     7
  5
5B1
 10
1.350633
 20
-2.024791
 30
0.0
  0
VERTEX
  8
LAYER-1
  6
CONTINUOUS
 62
     7
  5
5B2
 10
1.353994
 20
-2.009821
 30
0.0
  0
VERTEX
  8
LAYER-1
  6
CONTINUOUS
 62
     7
  5
5B3
 10
1.356617
 20
-1.994708
 30
0.0
  0
VERTEX
  8
LAYER-1
  6
CONTINUOUS
 62
     7
  5
5B4
 10
1.358495
 20
-1.979481
 30
0.0
  0
VERTEX
  8
LAYER-1
  6
CONTINUOUS
 62
     7
  5
5B5
 10
1.359623
 20
-1.964184
 30
0.0
  0
SEQEND
  8
LAYER-1
  6
CONTINUOUS
  5
5B6
  0
POLYLINE
  8
LAYER-1
  6
CONTINUOUS
 62
     7
  5
5B7
 66
     1
 10
0.0
 20
0.0
 30
0.0
 40
0.027509
 41
0.027509
  0
VERTEX
  8
LAYER-1
  6
CONTINUOUS
 62
     7
  5
5B8
 10
-4.252103
 20
0.25873
 30
0.0
  0
VERTEX
  8
LAYER-1
  6
CONTINUOUS
 62
     7
  5
5B9
 10
-3.928579
 20
1.466138
 30
0.0
  0
SEQEND
  8
LAYER-1
  6
CONTINUOUS
  5
5BA
  0
POLYLINE
  8
LAYER-1
  6
CONTINUOUS
 62
     7
  5
5BB
 66
     1
 10
0.0
 20
0.0
 30
0.0
 40
0.027509
 41
0.027509
  0
VERTEX
  8
LAYER-1
  6
CONTINUOUS
 62
     7
  5
5BC
 10
4.803452
 20
-2.167698
 30
0.0
  0
VERTEX
  8
LAYER-1
  6
CONTINUOUS
 62
     7
  5
5BD
 10
-4.252103
 20
0.25873
 30
0.0
  0
SEQEND
  8
LAYER-1
  6
CONTINUOUS
  5
5BE
  0
POLYLINE
  8
LAYER-1
  6
CONTINUOUS
 62
     7
  5
5BF
 66
     1
 10
0.0
 20
0.0
 30
0.0
 40
0.027509
 41
0.027509
  0
VERTEX
  8
LAYER-1
  6
CONTINUOUS
 62
     7
  5
5C0
 10
5.215364
 20
-1.113384
 30
0.0
  0
VERTEX
  8
LAYER-1
  6
CONTINUOUS
 62
     7
  5
5C1
 10
4.956545
 20
-2.07931
 30
0.0
  0
SEQEND
  8
LAYER-1
  6
CONTINUOUS
  5
5C2
  0
POLYLINE
  8
LAYER-1
  6
CONTINUOUS
 62
     7
  5
5C3
 66
     1
 10
0.0
 20
0.0
 30
0.0
 40
0.027509
 41
0.027509
  0
VERTEX
  8
LAYER-1
  6
CONTINUOUS
 62
     7
  5
5C4
 10
-3.928579
 20
1.466138
 30
0.0
  0
VERTEX
  8
LAYER-1
  6
CONTINUOUS
 62
     7
  5
5C5
 10
5.126976
 20
-0.960291
 30
0.0
  0
SEQEND
  8
LAYER-1
  6
CONTINUOUS
  5
5C6
  0
POLYLINE
  8
LAYER-1
  6
CONTINUOUS
 62
     7
  5
5C7
 66
     1
 10
0.0
 20
0.0
 30
0.0
 40
0.027509
 41
0.027509
  0
VERTEX
  8
LAYER-1
  6
CONTINUOUS
 62
     7
  5
5C8
 10
5.126976
 20
-0.960291
 30
0.0
  0
VERTEX
  8
LAYER-1
  6
CONTINUOUS
 62
     7
  5
5C9
 10
4.803452
 20
-2.167698
 30
0.0
  0
SEQEND
  8
LAYER-1
  6
CONTINUOUS
  5
5CA
  0
POLYLINE
  8
LAYER-1
  6
MCDASH01
 62
     7
  5
5CB
 66
     1
 10
0.0
 20
0.0
 30
0.0
 70
     1
  0
VERTEX
  8
LAYER-1
  6
MCDASH01
 62
     7
  5
5CC
 10
-4.037801
 20
1.058517
 30
0.0
  0
VERTEX
  8
LAYER-1
  6
MCDASH01
 62
     7
  5
5CD
 10
-2.588912
 20
0.670289
 30
0.0
  0
VERTEX
  8
LAYER-1
  6
MCDASH01
 62
     7
  5
5CE
 10
-2.693992
 20
0.278123
 30
0.0
  0
VERTEX
  8
LAYER-1
  6
MCDASH01
 62
     7
  5
5CF
 10
-4.142881
 20
0.666351
 30
0.0
  0
SEQEND
  8
LAYER-1
  6
MCDASH01
  5
5D0
  0
LINE
  8
LAYER-1
  6
MCDASH01
 62
     7
  5
5D1
 10
-2.588912
 20
0.670289
 30
0.0
 11
-2.520712
 21
0.441853
 31
0.0
  0
LINE
  8
LAYER-1
  6
MCDASH01
 62
     7
  5
5D2
 10
-2.520712
 20
0.441853
 30
0.0
 11
-2.693992
 21
0.278123
 31
0.0
  0
POLYLINE
  8
LAYER-1
  6
CONTINUOUS
 62
     7
  5
5D3
 66
     1
 10
0.0
 20
0.0
 30
0.0
 40
0.027509
 41
0.027509
  0
VERTEX
  8
LAYER-1
  6
CONTINUOUS
 62
     7
  5
5D4
 10
5.126976
 20
-0.960291
 30
0.0
  0
VERTEX
  8
LAYER-1
  6
CONTINUOUS
 62
     7
  5
5D5
 10
5.215364
 20
-1.113384
 30
0.0
  0
SEQEND
  8
LAYER-1
  6
CONTINUOUS
  5
5D6
  0
POLYLINE
  8
LAYER-1
  6
CONTINUOUS
 62
     7
  5
5D7
 66
     1
 10
0.0
 20
0.0
 30
0.0
 40
0.027509
 41
0.027509
  0
VERTEX
  8
LAYER-1
  6
CONTINUOUS
 62
     7
  5
5D8
 10
4.803452
 20
-2.167698
 30
0.0
  0
VERTEX
  8
LAYER-1
  6
CONTINUOUS
 62
     7
  5
5D9
 10
4.956545
 20
-2.07931
 30
0.0
  0
SEQEND
  8
LAYER-1
  6
CONTINUOUS
  5
5DA
  0
LINE
  8
LAYER-1
  6
MCDASH01
 62
     7
  5
5DB
 10
-0.01643
 20
0.417881
 30
0.0
 11
-0.339954
 21
-0.789527
 31
0.0
  0
LINE
  8
LAYER-1
  6
MCDASH01
 62
     7
  5
5DC
 10
2.398235
 20
-0.229127
 30
0.0
 11
2.074711
 21
-1.436534
 31
0.0
  0
CIRCLE
  8
LAYER-1
  6
CONTINUOUS
 62
     7
  5
5DD
 10
0.546103
 20
-0.379897
 30
0.0
 40
0.125
  0
POLYLINE
  8
LAYER-1
  6
CONTINUOUS
 62
     7
  5
5DE
 66
     1
 10
0.0
 20
0.0
 30
0.0
 70
     5
 40
0.035012
 41
0.035012
 75
     5
  0
VERTEX
  8
LAYER-1
  6
CONTINUOUS
 62
     7
  5
5DF
 10
-4.160746
 20
1.273137
 30
0.0
  0
VERTEX
  8
LAYER-1
  6
CONTINUOUS
 62
     7
  5
5E0
 10
-4.013111
 20
1.233579
 30
0.0
  0
VERTEX
  8
LAYER-1
  6
CONTINUOUS
 62
     7
  5
5E1
 10
-4.220167
 20
0.460838
 30
0.0
  0
VERTEX
  8
LAYER-1
  6
CONTINUOUS
 62
     7
  5
5E2
 10
-4.367801
 20
0.500397
 30
0.0
  0
SEQEND
  8
LAYER-1
  6
CONTINUOUS
  5
5E3
  0
POLYLINE
  8
LAYER-1
  6
CONTINUOUS
 62
     7
  5
5E4
 66
     1
 10
0.0
 20
0.0
 30
0.0
 40
0.035012
 41
0.035012
  0
VERTEX
  8
LAYER-1
  6
CONTINUOUS
 62
     7
  5
5E5
 10
-4.218722
 20
1.056767
 30
0.0
  0
VERTEX
  8
LAYER-1
  6
CONTINUOUS
 62
     7
  5
5E6
 10
-4.071088
 20
1.017208
 30
0.0
  0
SEQEND
  8
LAYER-1
  6
CONTINUOUS
  5
5E7
  0
POLYLINE
  8
LAYER-1
  6
CONTINUOUS
 62
     7
  5
5E8
 66
     1
 10
0.0
 20
0.0
 30
0.0
 40
0.035012
 41
0.035012
  0
VERTEX
  8
LAYER-1
  6
CONTINUOUS
 62
     7
  5
5E9
 10
-4.307145
 20
0.726767
 30
0.0
  0
VERTEX
  8
LAYER-1
  6
CONTINUOUS
 62
     7
  5
5EA
 10
-4.159511
 20
0.687208
 30
0.0
  0
SEQEND
  8
LAYER-1
  6
CONTINUOUS
  5
5EB
  0
POLYLINE
  8
LAYER-1
  6
CONTINUOUS
 62
     7
  5
5EC
 66
     1
 10
0.0
 20
0.0
 30
0.0
 70
     5
 40
0.035012
 41
0.035012
 75
     5
  0
VERTEX
  8
LAYER-1
  6
CONTINUOUS
 62
     7
  5
5ED
 10
0.684483
 20
-4.663233
 30
0.0
  0
VERTEX
  8
LAYER-1
  6
CONTINUOUS
 62
     7
  5
5EE
 10
1.404483
 20
-4.663233
 30
0.0
  0
VERTEX
  8
LAYER-1
  6
CONTINUOUS
 62
     7
  5
5EF
 10
1.404483
 20
-4.988973
 30
0.0
  0
VERTEX
  8
LAYER-1
  6
CONTINUOUS
 62
     7
  5
5F0
 10
0.684483
 20
-4.988973
 30
0.0
  0
SEQEND
  8
LAYER-1
  6
CONTINUOUS
  5
5F1
  0
POLYLINE
  8
LAYER-1
  6
CONTINUOUS
 62
     7
  5
5F2
 66
     1
 10
0.0
 20
0.0
 30
0.0
 40
0.035012
 41
0.035012
  0
VERTEX
  8
LAYER-1
  6
CONTINUOUS
 62
     7
  5
5F3
 10
0.905941
 20
-4.663233
 30
0.0
  0
VERTEX
  8
LAYER-1
  6
CONTINUOUS
 62
     7
  5
5F4
 10
0.905941
 20
-4.988973
 30
0.0
  0
SEQEND
  8
LAYER-1
  6
CONTINUOUS
  5
5F5
  0
POLYLINE
  8
LAYER-1
  6
CONTINUOUS
 62
     7
  5
5F6
 66
     1
 10
0.0
 20
0.0
 30
0.0
 40
0.035012
 41
0.035012
  0
VERTEX
  8
LAYER-1
  6
CONTINUOUS
 62
     7
  5
5F7
 10
1.184483
 20
-4.663233
 30
0.0
  0
VERTEX
  8
LAYER-1
  6
CONTINUOUS
 62
     7
  5
5F8
 10
1.184483
 20
-4.988973
 30
0.0
  0
SEQEND
  8
LAYER-1
  6
CONTINUOUS
  5
5F9
  0
LINE
  8
LAYER-1
  6
MCDASH01
 62
     7
  5
5FA
 10
0.295
 20
0.020252
 30
0.0
 11
1.42
 21
0.020252
 31
0.0
  0
LINE
  8
LAYER-1
  6
MCDASH01
 62
     7
  5
5FB
 10
0.295
 20
-0.959662
 30
0.0
 11
0.295
 21
0.020252
 31
0.0
  0
LINE
  8
LAYER-1
  6
MCDASH01
 62
     7
  5
5FC
 10
1.42
 20
0.020252
 30
0.0
 11
1.42
 21
-1.261105
 31
0.0
  0
ENDSEC
  0
EOF
