  0
SECTION
  2
HEADER
  9
$ACADVER
  1
AC1009
  9
$INSBASE
 10
0.0
 20
0.0
 30
0.0
  9
$EXTMIN
 10
-5.166667
 20
-4.131944
 30
0.0
  9
$EXTMAX
 10
5.166667
 20
4.131944
 30
0.0
  9
$LIMMIN
 10
0.0
 20
0.0
  9
$LIMMAX
 10
0.0
 20
0.0
  9
$ORTHOMODE
 70
     0
  9
$REGENMODE
 70
     1
  9
$FILLMODE
 70
     1
  9
$QTEXTMODE
 70
     0
  9
$MIRRTEXT
 70
     1
  9
$DRAGMODE
 70
     2
  9
$LTSCALE
 40
1.0
  9
$OSMODE
 70
     0
  9
$ATTMODE
 70
     1
  9
$TEXTSIZE
 40
0.2
  9
$TRACEWID
 40
0.05
  9
$TEXTSTYLE
  7
STANDARD
  9
$CLAYER
  8
0
  9
$CELTYPE
  6
CONTINUOUS
  9
$CECOLOR
 62
   256
  9
$DIMSCALE
 40
1.0
  9
$DIMASZ
 40
0.18
  9
$DIMEXO
 40
0.0625
  9
$DIMDLI
 40
0.38
  9
$DIMRND
 40
0.0
  9
$DIMDLE
 40
0.0
  9
$DIMEXE
 40
0.18
  9
$DIMTP
 40
0.0
  9
$DIMTM
 40
0.0
  9
$DIMTXT
 40
0.18
  9
$DIMCEN
 40
0.09
  9
$DIMTSZ
 40
0.0
  9
$DIMTOL
 70
     0
  9
$DIMLIM
 70
     0
  9
$DIMTIH
 70
     1
  9
$DIMTOH
 70
     1
  9
$DIMSE1
 70
     0
  9
$DIMSE2
 70
     0
  9
$DIMTAD
 70
     0
  9
$DIMZIN
 70
     0
  9
$DIMBLK
  1

  9
$DIMASO
 70
     1
  9
$DIMSHO
 70
     1
  9
$DIMPOST
  1

  9
$DIMAPOST
  1

  9
$DIMALT
 70
     0
  9
$DIMALTD
 70
     2
  9
$DIMALTF
 40
25.4
  9
$DIMLFAC
 40
1.0
  9
$DIMTOFL
 70
     0
  9
$DIMTVP
 40
0.0
  9
$DIMTIX
 70
     0
  9
$DIMSOXD
 70
     0
  9
$DIMSAH
 70
     0
  9
$DIMBLK1
  1

  9
$DIMBLK2
  1

  9
$DIMSTYLE
  2
STANDARD
  9
$DIMCLRD
 70
     0
  9
$DIMCLRE
 70
     0
  9
$DIMCLRT
 70
     0
  9
$DIMTFAC
 40
1.0
  9
$DIMGAP
 40
0.09
  9
$LUNITS
 70
     2
  9
$LUPREC
 70
     4
  9
$AXISMODE
 70
     0
  9
$AXISUNIT
 10
0.0
 20
0.0
  9
$SKETCHINC
 40
0.1
  9
$FILLETRAD
 40
0.0
  9
$AUNITS
 70
     0
  9
$AUPREC
 70
     0
  9
$MENU
  1
acad
  9
$ELEVATION
 40
0.0
  9
$PELEVATION
 40
0.0
  9
$THICKNESS
 40
0.0
  9
$LIMCHECK
 70
     0
  9
$BLIPMODE
 70
     1
  9
$CHAMFERA
 40
0.0
  9
$CHAMFERB
 40
0.0
  9
$SKPOLY
 70
     0
  9
$TDCREATE
 40
2451806.705057871
  9
$TDUPDATE
 40
2451806.705057871
  9
$TDINDWG
 40
0.0000000000
  9
$TDUSRTIMER
 40
0.0000000000
  9
$USRTIMER
 70
     1
  9
$ANGBASE
 50
0.0
  9
$ANGDIR
 70
     0
  9
$PDMODE
 70
     0
  9
$PDSIZE
 40
0.0
  9
$PLINEWID
 40
0.0
  9
$COORDS
 70
     0
  9
$SPLFRAME
 70
     0
  9
$SPLINETYPE
 70
     6
  9
$SPLINESEGS
 70
     8
  9
$ATTDIA
 70
     0
  9
$ATTREQ
 70
     1
  9
$HANDLING
 70
     1
  9
$HANDSEED
  5
190
  9
$SURFTAB1
 70
     6
  9
$SURFTAB2
 70
     6
  9
$SURFTYPE
 70
     6
  9
$SURFU
 70
     6
  9
$SURFV
 70
     6
  9
$UCSNAME
  2

  9
$UCSORG
 10
0.0
 20
0.0
 30
0.0
  9
$UCSXDIR
 10
1.0
 20
0.0
 30
0.0
  9
$UCSYDIR
 10
0.0
 20
1.0
 30
0.0
  9
$PUCSNAME
  2

  9
$PUCSORG
 10
0.0
 20
0.0
 30
0.0
  9
$PUCSXDIR
 10
1.0
 20
0.0
 30
0.0
  9
$PUCSYDIR
 10
0.0
 20
1.0
 30
0.0
  9
$USERI1
 70
     0
  9
$USERI2
 70
     0
  9
$USERI3
 70
     0
  9
$USERI4
 70
     0
  9
$USERI5
 70
     0
  9
$USERR1
 40
0.0
  9
$USERR2
 40
0.0
  9
$USERR3
 40
0.0
  9
$USERR4
 40
0.0
  9
$USERR5
 40
0.0
  9
$WORLDVIEW
 70
     1
  9
$SHADEDGE
 70
     3
  9
$SHADEDIF
 70
    70
  9
$TILEMODE
 70
     1
  9
$MAXACTVP
 70
    16
  9
$PINSBASE
 10
0.0
 20
0.0
 30
0.0
  9
$PLIMCHECK
 70
     0
  9
$PEXTMIN
 10
1.000000E+20
 20
1.000000E+20
 30
1.000000E+20
  9
$PEXTMAX
 10
-1.000000E+20
 20
-1.000000E+20
 30
-1.000000E+20
  9
$PLIMMIN
 10
0.0
 20
0.0
  9
$PLIMMAX
 10
12.0
 20
9.0
  9
$UNITMODE
 70
     0
  9
$VISRETAIN
 70
     0
  9
$PLINEGEN
 70
     1
  9
$PSLTSCALE
 70
     0
  9
$TREEDEPTH
 70
  3020
  9
$DWGCODEPAGE
  3
dos850
  0
ENDSEC
  0
SECTION
  2
TABLES
  0
TABLE
  2
VPORT
 70
     1
  0
VPORT
  2
*ACTIVE
 70
     0
 10
0.0
 20
0.0
 11
1.0
 21
1.0
 12
0.0
 22
0.0
 13
0.0
 23
0.0
 14
1.0
 24
1.0
 15
0.0
 25
0.0
 16
0.0
 26
0.0
 36
1.0
 17
0.0
 27
0.0
 37
0.0
 40
8.0
 41
0.688564
 42
50.0
 43
0.0
 44
0.0
 50
0.0
 51
0.0
 71
     0
 72
   100
 73
     1
 74
     1
 75
     0
 76
     0
 77
     0
 78
     0
  0
ENDTAB
  0
TABLE
  2
LTYPE
 70
    11
  0
LTYPE
  2
CONTINUOUS
 70
     0
  3
Solid line
 72
    65
 73
     0
 40
0.0
  0
LTYPE
  2
MCDASH01
 70
     0
  3

 72
    65
 73
     2
 40
0.083328
 49
0.041656
 49
-0.041672
  0
LTYPE
  2
MCDASH02
 70
     0
  3

 72
    65
 73
     2
 40
0.138885
 49
0.097214
 49
-0.041672
  0
LTYPE
  2
MCDASH03
 70
     0
  3

 72
    65
 73
     2
 40
0.25
 49
0.208328
 49
-0.041672
  0
LTYPE
  2
MCDASH04
 70
     0
  3

 72
    65
 73
     2
 40
0.305542
 49
0.263885
 49
-0.041656
  0
LTYPE
  2
MCDASH05
 70
     0
  3

 72
    65
 73
     2
 40
0.041656
 49
0.013885
 49
-0.027771
  0
LTYPE
  2
MCDASH06
 70
     0
  3

 72
    65
 73
     4
 40
0.208328
 49
0.125
 49
-0.041656
 49
0.013885
 49
-0.027786
  0
LTYPE
  2
MCDASH07
 70
     0
  3

 72
    65
 73
     6
 40
0.375
 49
0.125
 49
-0.041656
 49
0.125
 49
-0.041672
 49
0.013885
 49
-0.027786
  0
LTYPE
  2
MCDASH08
 70
     0
  3

 72
    65
 73
     6
 40
0.25
 49
0.125
 49
-0.041656
 49
0.013885
 49
-0.027786
 49
0.013885
 49
-0.027786
  0
LTYPE
  2
MCDASH09
 70
     0
  3

 72
    65
 73
     4
 40
1.0
 49
0.75
 49
-0.055557
 49
0.138885
 49
-0.055557
  0
LTYPE
  2
MCDASH10
 70
     0
  3

 72
    65
 73
     6
 40
1.1875
 49
0.75
 49
-0.055557
 49
0.138885
 49
-0.055557
 49
0.125
 49
-0.0625
  0
ENDTAB
  0
TABLE
  2
LAYER
 70
     2
  0
LAYER
  2
0
 70
     0
 62
     7
  6
CONTINUOUS
  0
LAYER
  2
LAYER-1
 70
    64
 62
     7
  6
CONTINUOUS
  0
ENDTAB
  0
TABLE
  2
STYLE
 70
     1
  0
STYLE
  2
STANDARD
 70
     0
 40
0.0
 41
1.0
 50
0.0
 71
     0
 42
0.0
  3
txt
  4

  0
ENDTAB
  0
TABLE
  2
VIEW
 70
     0
  0
ENDTAB
  0
TABLE
  2
UCS
 70
     0
  0
ENDTAB
  0
TABLE
  2
APPID
 70
     1
  0
APPID
  2
ACAD
 70
     0
  0
ENDTAB
  0
TABLE
  2
DIMSTYLE
 70
     1
  0
DIMSTYLE
  2
STANDARD
 70
     0
  3

  4

  5

  6

  7

 40
1.0
 41
0.18
 42
0.0625
 43
0.38
 44
0.18
 45
0.0
 46
0.0
 47
0.0
 48
0.0
140
0.18
141
0.09
142
0.0
143
25.4
144
1.0
145
0.0
146
1.0
147
0.09
 71
     0
 72
     0
 73
     1
 74
     1
 75
     0
 76
     0
 77
     0
 78
     0
170
     0
171
     2
172
     0
173
     0
174
     0
175
     0
176
     0
177
     0
178
     0
  0
ENDTAB
  0
ENDSEC
  0
SECTION
  2
BLOCKS
  0
ENDSEC
  0
SECTION
  2
ENTITIES
  0
POLYLINE
  8
LAYER-1
  6
CONTINUOUS
 62
     7
  5
2B
 66
     1
 10
0.0
 20
0.0
 30
0.0
 70
     5
 40
0.028
 41
0.028
 75
     5
  0
VERTEX
  8
LAYER-1
  6
CONTINUOUS
 62
     7
  5
2C
 10
-1.875
 20
1.5
 30
0.0
  0
VERTEX
  8
LAYER-1
  6
CONTINUOUS
 62
     7
  5
2D
 10
-0.75
 20
1.5
 30
0.0
  0
VERTEX
  8
LAYER-1
  6
CONTINUOUS
 62
     7
  5
2E
 10
-0.75
 20
0.0
 30
0.0
  0
VERTEX
  8
LAYER-1
  6
CONTINUOUS
 62
     7
  5
2F
 10
-1.875
 20
0.0
 30
0.0
  0
SEQEND
  8
LAYER-1
  6
CONTINUOUS
  5
30
  0
POLYLINE
  8
LAYER-1
  6
CONTINUOUS
 62
     7
  5
31
 66
     1
 10
0.0
 20
0.0
 30
0.0
 70
     5
 40
0.028
 41
0.028
 75
     5
  0
VERTEX
  8
LAYER-1
  6
CONTINUOUS
 62
     7
  5
32
 10
1.425
 20
1.5
 30
0.0
  0
VERTEX
  8
LAYER-1
  6
CONTINUOUS
 62
     7
  5
33
 10
2.125
 20
1.5
 30
0.0
  0
VERTEX
  8
LAYER-1
  6
CONTINUOUS
 62
     7
  5
34
 10
2.125
 20
0.0
 30
0.0
  0
VERTEX
  8
LAYER-1
  6
CONTINUOUS
 62
     7
  5
35
 10
1.425
 20
0.0
 30
0.0
  0
SEQEND
  8
LAYER-1
  6
CONTINUOUS
  5
36
  0
POLYLINE
  8
LAYER-1
  6
CONTINUOUS
 62
     7
  5
37
 66
     1
 10
0.0
 20
0.0
 30
0.0
 70
     5
 40
0.028
 41
0.028
 75
     5
  0
VERTEX
  8
LAYER-1
  6
CONTINUOUS
 62
     7
  5
38
 10
-1.5
 20
1.1
 30
0.0
  0
VERTEX
  8
LAYER-1
  6
CONTINUOUS
 62
     7
  5
39
 10
-1.500151
 20
1.106135
 30
0.0
  0
VERTEX
  8
LAYER-1
  6
CONTINUOUS
 62
     7
  5
3A
 10
-1.500602
 20
1.112254
 30
0.0
  0
VERTEX
  8
LAYER-1
  6
CONTINUOUS
 62
     7
  5
3B
 10
-1.501353
 20
1.118345
 30
0.0
  0
VERTEX
  8
LAYER-1
  6
CONTINUOUS
 62
     7
  5
3C
 10
-1.502402
 20
1.12439
 30
0.0
  0
VERTEX
  8
LAYER-1
  6
CONTINUOUS
 62
     7
  5
3D
 10
-1.503747
 20
1.130378
 30
0.0
  0
VERTEX
  8
LAYER-1
  6
CONTINUOUS
 62
     7
  5
3E
 10
-1.505383
 20
1.136291
 30
0.0
  0
VERTEX
  8
LAYER-1
  6
CONTINUOUS
 62
     7
  5
3F
 10
-1.507309
 20
1.142119
 30
0.0
  0
VERTEX
  8
LAYER-1
  6
CONTINUOUS
 62
     7
  5
40
 10
-1.509517
 20
1.147843
 30
0.0
  0
VERTEX
  8
LAYER-1
  6
CONTINUOUS
 62
     7
  5
41
 10
-1.512004
 20
1.153453
 30
0.0
  0
VERTEX
  8
LAYER-1
  6
CONTINUOUS
 62
     7
  5
42
 10
-1.514763
 20
1.158933
 30
0.0
  0
VERTEX
  8
LAYER-1
  6
CONTINUOUS
 62
     7
  5
43
 10
-1.517788
 20
1.164273
 30
0.0
  0
VERTEX
  8
LAYER-1
  6
CONTINUOUS
 62
     7
  5
44
 10
-1.521071
 20
1.169456
 30
0.0
  0
VERTEX
  8
LAYER-1
  6
CONTINUOUS
 62
     7
  5
45
 10
-1.524606
 20
1.174473
 30
0.0
  0
VERTEX
  8
LAYER-1
  6
CONTINUOUS
 62
     7
  5
46
 10
-1.528381
 20
1.17931
 30
0.0
  0
VERTEX
  8
LAYER-1
  6
CONTINUOUS
 62
     7
  5
47
 10
-1.53239
 20
1.183956
 30
0.0
  0
VERTEX
  8
LAYER-1
  6
CONTINUOUS
 62
     7
  5
48
 10
-1.536622
 20
1.1884
 30
0.0
  0
VERTEX
  8
LAYER-1
  6
CONTINUOUS
 62
     7
  5
49
 10
-1.541068
 20
1.192632
 30
0.0
  0
VERTEX
  8
LAYER-1
  6
CONTINUOUS
 62
     7
  5
4A
 10
-1.545714
 20
1.196639
 30
0.0
  0
VERTEX
  8
LAYER-1
  6
CONTINUOUS
 62
     7
  5
4B
 10
-1.550553
 20
1.200414
 30
0.0
  0
VERTEX
  8
LAYER-1
  6
CONTINUOUS
 62
     7
  5
4C
 10
-1.55557
 20
1.203946
 30
0.0
  0
VERTEX
  8
LAYER-1
  6
CONTINUOUS
 62
     7
  5
4D
 10
-1.560755
 20
1.207228
 30
0.0
  0
VERTEX
  8
LAYER-1
  6
CONTINUOUS
 62
     7
  5
4E
 10
-1.566094
 20
1.210251
 30
0.0
  0
VERTEX
  8
LAYER-1
  6
CONTINUOUS
 62
     7
  5
4F
 10
-1.571576
 20
1.21301
 30
0.0
  0
VERTEX
  8
LAYER-1
  6
CONTINUOUS
 62
     7
  5
50
 10
-1.577186
 20
1.215495
 30
0.0
  0
VERTEX
  8
LAYER-1
  6
CONTINUOUS
 62
     7
  5
51
 10
-1.582912
 20
1.217702
 30
0.0
  0
VERTEX
  8
LAYER-1
  6
CONTINUOUS
 62
     7
  5
52
 10
-1.588738
 20
1.219625
 30
0.0
  0
VERTEX
  8
LAYER-1
  6
CONTINUOUS
 62
     7
  5
53
 10
-1.594653
 20
1.221261
 30
0.0
  0
VERTEX
  8
LAYER-1
  6
CONTINUOUS
 62
     7
  5
54
 10
-1.60064
 20
1.222604
 30
0.0
  0
VERTEX
  8
LAYER-1
  6
CONTINUOUS
 62
     7
  5
55
 10
-1.606687
 20
1.223651
 30
0.0
  0
VERTEX
  8
LAYER-1
  6
CONTINUOUS
 62
     7
  5
56
 10
-1.612776
 20
1.224401
 30
0.0
  0
VERTEX
  8
LAYER-1
  6
CONTINUOUS
 62
     7
  5
57
 10
-1.618897
 20
1.224851
 30
0.0
  0
VERTEX
  8
LAYER-1
  6
CONTINUOUS
 62
     7
  5
58
 10
-1.62497
 20
1.225
 30
0.0
  0
VERTEX
  8
LAYER-1
  6
CONTINUOUS
 62
     7
  5
59
 10
-1.631103
 20
1.224851
 30
0.0
  0
VERTEX
  8
LAYER-1
  6
CONTINUOUS
 62
     7
  5
5A
 10
-1.637224
 20
1.224401
 30
0.0
  0
VERTEX
  8
LAYER-1
  6
CONTINUOUS
 62
     7
  5
5B
 10
-1.643313
 20
1.223651
 30
0.0
  0
VERTEX
  8
LAYER-1
  6
CONTINUOUS
 62
     7
  5
5C
 10
-1.64936
 20
1.222604
 30
0.0
  0
VERTEX
  8
LAYER-1
  6
CONTINUOUS
 62
     7
  5
5D
 10
-1.655347
 20
1.221261
 30
0.0
  0
VERTEX
  8
LAYER-1
  6
CONTINUOUS
 62
     7
  5
5E
 10
-1.661262
 20
1.219625
 30
0.0
  0
VERTEX
  8
LAYER-1
  6
CONTINUOUS
 62
     7
  5
5F
 10
-1.667088
 20
1.217702
 30
0.0
  0
VERTEX
  8
LAYER-1
  6
CONTINUOUS
 62
     7
  5
60
 10
-1.672815
 20
1.215495
 30
0.0
  0
VERTEX
  8
LAYER-1
  6
CONTINUOUS
 62
     7
  5
61
 10
-1.678424
 20
1.21301
 30
0.0
  0
VERTEX
  8
LAYER-1
  6
CONTINUOUS
 62
     7
  5
62
 10
-1.683906
 20
1.210251
 30
0.0
  0
VERTEX
  8
LAYER-1
  6
CONTINUOUS
 62
     7
  5
63
 10
-1.689245
 20
1.207228
 30
0.0
  0
VERTEX
  8
LAYER-1
  6
CONTINUOUS
 62
     7
  5
64
 10
-1.694431
 20
1.203946
 30
0.0
  0
VERTEX
  8
LAYER-1
  6
CONTINUOUS
 62
     7
  5
65
 10
-1.699447
 20
1.200414
 30
0.0
  0
VERTEX
  8
LAYER-1
  6
CONTINUOUS
 62
     7
  5
66
 10
-1.704286
 20
1.196639
 30
0.0
  0
VERTEX
  8
LAYER-1
  6
CONTINUOUS
 62
     7
  5
67
 10
-1.708932
 20
1.192632
 30
0.0
  0
VERTEX
  8
LAYER-1
  6
CONTINUOUS
 62
     7
  5
68
 10
-1.713378
 20
1.1884
 30
0.0
  0
VERTEX
  8
LAYER-1
  6
CONTINUOUS
 62
     7
  5
69
 10
-1.71761
 20
1.183956
 30
0.0
  0
VERTEX
  8
LAYER-1
  6
CONTINUOUS
 62
     7
  5
6A
 10
-1.721619
 20
1.17931
 30
0.0
  0
VERTEX
  8
LAYER-1
  6
CONTINUOUS
 62
     7
  5
6B
 10
-1.725395
 20
1.174473
 30
0.0
  0
VERTEX
  8
LAYER-1
  6
CONTINUOUS
 62
     7
  5
6C
 10
-1.728929
 20
1.169456
 30
0.0
  0
VERTEX
  8
LAYER-1
  6
CONTINUOUS
 62
     7
  5
6D
 10
-1.732212
 20
1.164273
 30
0.0
  0
VERTEX
  8
LAYER-1
  6
CONTINUOUS
 62
     7
  5
6E
 10
-1.735237
 20
1.158933
 30
0.0
  0
VERTEX
  8
LAYER-1
  6
CONTINUOUS
 62
     7
  5
6F
 10
-1.737996
 20
1.153453
 30
0.0
  0
VERTEX
  8
LAYER-1
  6
CONTINUOUS
 62
     7
  5
70
 10
-1.740483
 20
1.147843
 30
0.0
  0
VERTEX
  8
LAYER-1
  6
CONTINUOUS
 62
     7
  5
71
 10
-1.742692
 20
1.142119
 30
0.0
  0
VERTEX
  8
LAYER-1
  6
CONTINUOUS
 62
     7
  5
72
 10
-1.744617
 20
1.136291
 30
0.0
  0
VERTEX
  8
LAYER-1
  6
CONTINUOUS
 62
     7
  5
73
 10
-1.746253
 20
1.130378
 30
0.0
  0
VERTEX
  8
LAYER-1
  6
CONTINUOUS
 62
     7
  5
74
 10
-1.747598
 20
1.12439
 30
0.0
  0
VERTEX
  8
LAYER-1
  6
CONTINUOUS
 62
     7
  5
75
 10
-1.748647
 20
1.118345
 30
0.0
  0
VERTEX
  8
LAYER-1
  6
CONTINUOUS
 62
     7
  5
76
 10
-1.749398
 20
1.112254
 30
0.0
  0
VERTEX
  8
LAYER-1
  6
CONTINUOUS
 62
     7
  5
77
 10
-1.749849
 20
1.106135
 30
0.0
  0
VERTEX
  8
LAYER-1
  6
CONTINUOUS
 62
     7
  5
78
 10
-1.75
 20
1.1
 30
0.0
  0
VERTEX
  8
LAYER-1
  6
CONTINUOUS
 62
     7
  5
79
 10
-1.749849
 20
1.093865
 30
0.0
  0
VERTEX
  8
LAYER-1
  6
CONTINUOUS
 62
     7
  5
7A
 10
-1.749398
 20
1.087746
 30
0.0
  0
VERTEX
  8
LAYER-1
  6
CONTINUOUS
 62
     7
  5
7B
 10
-1.748647
 20
1.081655
 30
0.0
  0
VERTEX
  8
LAYER-1
  6
CONTINUOUS
 62
     7
  5
7C
 10
-1.747598
 20
1.07561
 30
0.0
  0
VERTEX
  8
LAYER-1
  6
CONTINUOUS
 62
     7
  5
7D
 10
-1.746253
 20
1.069622
 30
0.0
  0
VERTEX
  8
LAYER-1
  6
CONTINUOUS
 62
     7
  5
7E
 10
-1.744617
 20
1.063709
 30
0.0
  0
VERTEX
  8
LAYER-1
  6
CONTINUOUS
 62
     7
  5
7F
 10
-1.742692
 20
1.057881
 30
0.0
  0
VERTEX
  8
LAYER-1
  6
CONTINUOUS
 62
     7
  5
80
 10
-1.740483
 20
1.052157
 30
0.0
  0
VERTEX
  8
LAYER-1
  6
CONTINUOUS
 62
     7
  5
81
 10
-1.737996
 20
1.046547
 30
0.0
  0
VERTEX
  8
LAYER-1
  6
CONTINUOUS
 62
     7
  5
82
 10
-1.735237
 20
1.041067
 30
0.0
  0
VERTEX
  8
LAYER-1
  6
CONTINUOUS
 62
     7
  5
83
 10
-1.732212
 20
1.035727
 30
0.0
  0
VERTEX
  8
LAYER-1
  6
CONTINUOUS
 62
     7
  5
84
 10
-1.728929
 20
1.030544
 30
0.0
  0
VERTEX
  8
LAYER-1
  6
CONTINUOUS
 62
     7
  5
85
 10
-1.725395
 20
1.025527
 30
0.0
  0
VERTEX
  8
LAYER-1
  6
CONTINUOUS
 62
     7
  5
86
 10
-1.721619
 20
1.02069
 30
0.0
  0
VERTEX
  8
LAYER-1
  6
CONTINUOUS
 62
     7
  5
87
 10
-1.71761
 20
1.016044
 30
0.0
  0
VERTEX
  8
LAYER-1
  6
CONTINUOUS
 62
     7
  5
88
 10
-1.713378
 20
1.0116
 30
0.0
  0
VERTEX
  8
LAYER-1
  6
CONTINUOUS
 62
     7
  5
89
 10
-1.708932
 20
1.007368
 30
0.0
  0
VERTEX
  8
LAYER-1
  6
CONTINUOUS
 62
     7
  5
8A
 10
-1.704286
 20
1.003361
 30
0.0
  0
VERTEX
  8
LAYER-1
  6
CONTINUOUS
 62
     7
  5
8B
 10
-1.699447
 20
0.999586
 30
0.0
  0
VERTEX
  8
LAYER-1
  6
CONTINUOUS
 62
     7
  5
8C
 10
-1.694431
 20
0.996054
 30
0.0
  0
VERTEX
  8
LAYER-1
  6
CONTINUOUS
 62
     7
  5
8D
 10
-1.689245
 20
0.992772
 30
0.0
  0
VERTEX
  8
LAYER-1
  6
CONTINUOUS
 62
     7
  5
8E
 10
-1.683906
 20
0.989749
 30
0.0
  0
VERTEX
  8
LAYER-1
  6
CONTINUOUS
 62
     7
  5
8F
 10
-1.678424
 20
0.98699
 30
0.0
  0
VERTEX
  8
LAYER-1
  6
CONTINUOUS
 62
     7
  5
90
 10
-1.672815
 20
0.984505
 30
0.0
  0
VERTEX
  8
LAYER-1
  6
CONTINUOUS
 62
     7
  5
91
 10
-1.667088
 20
0.982298
 30
0.0
  0
VERTEX
  8
LAYER-1
  6
CONTINUOUS
 62
     7
  5
92
 10
-1.661262
 20
0.980375
 30
0.0
  0
VERTEX
  8
LAYER-1
  6
CONTINUOUS
 62
     7
  5
93
 10
-1.655347
 20
0.978739
 30
0.0
  0
VERTEX
  8
LAYER-1
  6
CONTINUOUS
 62
     7
  5
94
 10
-1.64936
 20
0.977396
 30
0.0
  0
VERTEX
  8
LAYER-1
  6
CONTINUOUS
 62
     7
  5
95
 10
-1.643313
 20
0.976348
 30
0.0
  0
VERTEX
  8
LAYER-1
  6
CONTINUOUS
 62
     7
  5
96
 10
-1.637224
 20
0.975599
 30
0.0
  0
VERTEX
  8
LAYER-1
  6
CONTINUOUS
 62
     7
  5
97
 10
-1.631103
 20
0.975149
 30
0.0
  0
VERTEX
  8
LAYER-1
  6
CONTINUOUS
 62
     7
  5
98
 10
-1.62497
 20
0.975
 30
0.0
  0
VERTEX
  8
LAYER-1
  6
CONTINUOUS
 62
     7
  5
99
 10
-1.618897
 20
0.975149
 30
0.0
  0
VERTEX
  8
LAYER-1
  6
CONTINUOUS
 62
     7
  5
9A
 10
-1.612776
 20
0.975599
 30
0.0
  0
VERTEX
  8
LAYER-1
  6
CONTINUOUS
 62
     7
  5
9B
 10
-1.606687
 20
0.976348
 30
0.0
  0
VERTEX
  8
LAYER-1
  6
CONTINUOUS
 62
     7
  5
9C
 10
-1.60064
 20
0.977396
 30
0.0
  0
VERTEX
  8
LAYER-1
  6
CONTINUOUS
 62
     7
  5
9D
 10
-1.594653
 20
0.978739
 30
0.0
  0
VERTEX
  8
LAYER-1
  6
CONTINUOUS
 62
     7
  5
9E
 10
-1.588738
 20
0.980375
 30
0.0
  0
VERTEX
  8
LAYER-1
  6
CONTINUOUS
 62
     7
  5
9F
 10
-1.582912
 20
0.982298
 30
0.0
  0
VERTEX
  8
LAYER-1
  6
CONTINUOUS
 62
     7
  5
A0
 10
-1.577186
 20
0.984505
 30
0.0
  0
VERTEX
  8
LAYER-1
  6
CONTINUOUS
 62
     7
  5
A1
 10
-1.571576
 20
0.98699
 30
0.0
  0
VERTEX
  8
LAYER-1
  6
CONTINUOUS
 62
     7
  5
A2
 10
-1.566094
 20
0.989749
 30
0.0
  0
VERTEX
  8
LAYER-1
  6
CONTINUOUS
 62
     7
  5
A3
 10
-1.560755
 20
0.992772
 30
0.0
  0
VERTEX
  8
LAYER-1
  6
CONTINUOUS
 62
     7
  5
A4
 10
-1.55557
 20
0.996054
 30
0.0
  0
VERTEX
  8
LAYER-1
  6
CONTINUOUS
 62
     7
  5
A5
 10
-1.550553
 20
0.999586
 30
0.0
  0
VERTEX
  8
LAYER-1
  6
CONTINUOUS
 62
     7
  5
A6
 10
-1.545714
 20
1.003361
 30
0.0
  0
VERTEX
  8
LAYER-1
  6
CONTINUOUS
 62
     7
  5
A7
 10
-1.541068
 20
1.007368
 30
0.0
  0
VERTEX
  8
LAYER-1
  6
CONTINUOUS
 62
     7
  5
A8
 10
-1.536622
 20
1.0116
 30
0.0
  0
VERTEX
  8
LAYER-1
  6
CONTINUOUS
 62
     7
  5
A9
 10
-1.53239
 20
1.016044
 30
0.0
  0
VERTEX
  8
LAYER-1
  6
CONTINUOUS
 62
     7
  5
AA
 10
-1.528381
 20
1.02069
 30
0.0
  0
VERTEX
  8
LAYER-1
  6
CONTINUOUS
 62
     7
  5
AB
 10
-1.524606
 20
1.025527
 30
0.0
  0
VERTEX
  8
LAYER-1
  6
CONTINUOUS
 62
     7
  5
AC
 10
-1.521071
 20
1.030544
 30
0.0
  0
VERTEX
  8
LAYER-1
  6
CONTINUOUS
 62
     7
  5
AD
 10
-1.517788
 20
1.035727
 30
0.0
  0
VERTEX
  8
LAYER-1
  6
CONTINUOUS
 62
     7
  5
AE
 10
-1.514763
 20
1.041067
 30
0.0
  0
VERTEX
  8
LAYER-1
  6
CONTINUOUS
 62
     7
  5
AF
 10
-1.512004
 20
1.046547
 30
0.0
  0
VERTEX
  8
LAYER-1
  6
CONTINUOUS
 62
     7
  5
B0
 10
-1.509517
 20
1.052157
 30
0.0
  0
VERTEX
  8
LAYER-1
  6
CONTINUOUS
 62
     7
  5
B1
 10
-1.507309
 20
1.057881
 30
0.0
  0
VERTEX
  8
LAYER-1
  6
CONTINUOUS
 62
     7
  5
B2
 10
-1.505383
 20
1.063709
 30
0.0
  0
VERTEX
  8
LAYER-1
  6
CONTINUOUS
 62
     7
  5
B3
 10
-1.503747
 20
1.069622
 30
0.0
  0
VERTEX
  8
LAYER-1
  6
CONTINUOUS
 62
     7
  5
B4
 10
-1.502402
 20
1.07561
 30
0.0
  0
VERTEX
  8
LAYER-1
  6
CONTINUOUS
 62
     7
  5
B5
 10
-1.501353
 20
1.081655
 30
0.0
  0
VERTEX
  8
LAYER-1
  6
CONTINUOUS
 62
     7
  5
B6
 10
-1.500602
 20
1.087746
 30
0.0
  0
VERTEX
  8
LAYER-1
  6
CONTINUOUS
 62
     7
  5
B7
 10
-1.500151
 20
1.093865
 30
0.0
  0
SEQEND
  8
LAYER-1
  6
CONTINUOUS
  5
B8
  0
LINE
  8
LAYER-1
  6
MCDASH01
 62
     7
  5
B9
 10
-1.375
 20
1.5
 30
0.0
 11
-1.375
 21
0.0
 31
0.0
  0
LINE
  8
LAYER-1
  6
MCDASH01
 62
     7
  5
BA
 10
-0.875
 20
1.5
 30
0.0
 11
-0.875
 21
0.0
 31
0.0
  0
LINE
  8
LAYER-1
  6
MCDASH01
 62
     7
  5
BB
 10
1.425
 20
1.225
 30
0.0
 11
2.125
 21
1.225
 31
0.0
  0
LINE
  8
LAYER-1
  6
MCDASH01
 62
     7
  5
BC
 10
1.425
 20
0.975
 30
0.0
 11
2.125
 21
0.975
 31
0.0
  0
LINE
  8
LAYER-1
  6
MCDASH01
 62
     7
  5
BD
 10
1.525
 20
1.5
 30
0.0
 11
1.525
 21
0.0
 31
0.0
  0
LINE
  8
LAYER-1
  6
MCDASH01
 62
     7
  5
BE
 10
2.025
 20
1.5
 30
0.0
 11
2.025
 21
0.0
 31
0.0
  0
LINE
  8
LAYER-1
  6
CONTINUOUS
 62
     7
  5
BF
 10
-0.75
 20
1.6875
 30
0.0
 11
-0.75
 21
1.985844
 31
0.0
  0
LINE
  8
LAYER-1
  6
CONTINUOUS
 62
     7
  5
C0
 10
-1.125
 20
1.5625
 30
0.0
 11
-1.125
 21
1.985844
 31
0.0
  0
SOLID
  8
LAYER-1
 62
     7
  5
C1
 10
-0.75
 20
1.860844
 30
0.0
 11
-0.625
 21
1.894338
 31
0.0
 12
-0.625
 22
1.82735
 32
0.0
 13
-0.625
 23
1.82735
 33
0.0
  0
LINE
  8
LAYER-1
  6
CONTINUOUS
 62
     7
  5
C2
 10
-0.75
 20
1.860844
 30
0.0
 11
-0.45
 21
1.860844
 31
0.0
  0
SOLID
  8
LAYER-1
 62
     7
  5
C3
 10
-1.125
 20
1.860844
 30
0.0
 11
-1.25
 21
1.82735
 31
0.0
 12
-1.25
 22
1.894338
 32
0.0
 13
-1.25
 23
1.894338
 33
0.0
  0
LINE
  8
LAYER-1
  6
CONTINUOUS
 62
     7
  5
C4
 10
-1.125
 20
1.860844
 30
0.0
 11
-1.425
 21
1.860844
 31
0.0
  0
TEXT
  8
LAYER-1
 62
     7
  5
C5
 10
-1.090278
 20
1.770566
 30
0.0
 40
0.1
  1
.375"
 41
0.611111
  0
LINE
  8
LAYER-1
  6
CONTINUOUS
 62
     7
  5
C6
 10
-0.75
 20
1.5625
 30
0.0
 11
-0.75
 21
2.25
 31
0.0
  0
LINE
  8
LAYER-1
  6
CONTINUOUS
 62
     7
  5
C7
 10
-1.625
 20
1.1625
 30
0.0
 11
-1.625
 21
2.25
 31
0.0
  0
SOLID
  8
LAYER-1
 62
     7
  5
C8
 10
-0.75
 20
2.125
 30
0.0
 11
-0.875
 21
2.091506
 31
0.0
 12
-0.875
 22
2.158494
 32
0.0
 13
-0.875
 23
2.158494
 33
0.0
  0
SOLID
  8
LAYER-1
 62
     7
  5
C9
 10
-1.625
 20
2.125
 30
0.0
 11
-1.5
 21
2.158494
 31
0.0
 12
-1.5
 22
2.091506
 32
0.0
 13
-1.5
 23
2.091506
 33
0.0
  0
LINE
  8
LAYER-1
  6
CONTINUOUS
 62
     7
  5
CA
 10
-0.75
 20
2.125
 30
0.0
 11
-1.625
 21
2.125
 31
0.0
  0
TEXT
  8
LAYER-1
 62
     7
  5
CB
 10
-1.340278
 20
2.034722
 30
0.0
 40
0.1
  1
.875"
 41
0.611111
  0
LINE
  8
LAYER-1
  6
CONTINUOUS
 62
     7
  5
CC
 10
-0.75
 20
1.5625
 30
0.0
 11
-0.75
 21
2.625
 31
0.0
  0
LINE
  8
LAYER-1
  6
CONTINUOUS
 62
     7
  5
CD
 10
-1.875
 20
1.5625
 30
0.0
 11
-1.875
 21
2.625
 31
0.0
  0
SOLID
  8
LAYER-1
 62
     7
  5
CE
 10
-0.75
 20
2.5
 30
0.0
 11
-0.875
 21
2.466506
 31
0.0
 12
-0.875
 22
2.533494
 32
0.0
 13
-0.875
 23
2.533494
 33
0.0
  0
SOLID
  8
LAYER-1
 62
     7
  5
CF
 10
-1.875
 20
2.5
 30
0.0
 11
-1.75
 21
2.533494
 31
0.0
 12
-1.75
 22
2.466506
 32
0.0
 13
-1.75
 23
2.466506
 33
0.0
  0
LINE
  8
LAYER-1
  6
CONTINUOUS
 62
     7
  5
D0
 10
-0.75
 20
2.5
 30
0.0
 11
-1.875
 21
2.5
 31
0.0
  0
TEXT
  8
LAYER-1
 62
     7
  5
D1
 10
-1.5
 20
2.409722
 30
0.0
 40
0.1
  1
1.125"
 41
0.625
  0
LINE
  8
LAYER-1
  6
CONTINUOUS
 62
     7
  5
D2
 10
-1.9375
 20
1.5
 30
0.0
 11
-2.875
 21
1.5
 31
0.0
  0
LINE
  8
LAYER-1
  6
CONTINUOUS
 62
     7
  5
D3
 10
-1.9375
 20
0.0
 30
0.0
 11
-2.875
 21
0.0
 31
0.0
  0
SOLID
  8
LAYER-1
 62
     7
  5
D4
 10
-2.75
 20
1.5
 30
0.0
 11
-2.716506
 21
1.375
 31
0.0
 12
-2.783494
 22
1.375
 32
0.0
 13
-2.783494
 23
1.375
 33
0.0
  0
SOLID
  8
LAYER-1
 62
     7
  5
D5
 10
-2.75
 20
0.0
 30
0.0
 11
-2.783494
 21
0.125
 31
0.0
 12
-2.716506
 22
0.125
 32
0.0
 13
-2.716506
 23
0.125
 33
0.0
  0
LINE
  8
LAYER-1
  6
CONTINUOUS
 62
     7
  5
D6
 10
-2.75
 20
1.5
 30
0.0
 11
-2.75
 21
0.0
 31
0.0
  0
TEXT
  8
LAYER-1
 62
     7
  5
D7
 10
-2.9375
 20
0.659722
 30
0.0
 40
0.1
  1
1.500"
 41
0.625
  0
LINE
  8
LAYER-1
  6
CONTINUOUS
 62
     7
  5
D8
 10
2.125
 20
1.5625
 30
0.0
 11
2.125
 21
2.375
 31
0.0
  0
LINE
  8
LAYER-1
  6
CONTINUOUS
 62
     7
  5
D9
 10
1.425
 20
1.5625
 30
0.0
 11
1.425
 21
2.375
 31
0.0
  0
SOLID
  8
LAYER-1
 62
     7
  5
DA
 10
2.125
 20
2.25
 30
0.0
 11
2.25
 21
2.283494
 31
0.0
 12
2.25
 22
2.216506
 32
0.0
 13
2.25
 23
2.216506
 33
0.0
  0
LINE
  8
LAYER-1
  6
CONTINUOUS
 62
     7
  5
DB
 10
2.125
 20
2.25
 30
0.0
 11
2.425
 21
2.25
 31
0.0
  0
SOLID
  8
LAYER-1
 62
     7
  5
DC
 10
1.425
 20
2.25
 30
0.0
 11
1.3
 21
2.216506
 31
0.0
 12
1.3
 22
2.283494
 32
0.0
 13
1.3
 23
2.283494
 33
0.0
  0
LINE
  8
LAYER-1
  6
CONTINUOUS
 62
     7
  5
DD
 10
1.425
 20
2.25
 30
0.0
 11
1.125
 21
2.25
 31
0.0
  0
TEXT
  8
LAYER-1
 62
     7
  5
DE
 10
1.622222
 20
2.159722
 30
0.0
 40
0.1
  1
.700"
 41
0.611111
  0
LINE
  8
LAYER-1
  6
CONTINUOUS
 62
     7
  5
DF
 10
1.775
 20
1.5625
 30
0.0
 11
1.775
 21
2.0
 31
0.0
  0
LINE
  8
LAYER-1
  6
CONTINUOUS
 62
     7
  5
E0
 10
2.125
 20
1.75
 30
0.0
 11
2.125
 21
2.0
 31
0.0
  0
SOLID
  8
LAYER-1
 62
     7
  5
E1
 10
1.775
 20
1.875
 30
0.0
 11
1.65
 21
1.841506
 31
0.0
 12
1.65
 22
1.908494
 32
0.0
 13
1.65
 23
1.908494
 33
0.0
  0
LINE
  8
LAYER-1
  6
CONTINUOUS
 62
     7
  5
E2
 10
1.775
 20
1.875
 30
0.0
 11
1.475
 21
1.875
 31
0.0
  0
SOLID
  8
LAYER-1
 62
     7
  5
E3
 10
2.125
 20
1.875
 30
0.0
 11
2.25
 21
1.908494
 31
0.0
 12
2.25
 22
1.841506
 32
0.0
 13
2.25
 23
1.841506
 33
0.0
  0
LINE
  8
LAYER-1
  6
CONTINUOUS
 62
     7
  5
E4
 10
2.125
 20
1.875
 30
0.0
 11
2.425
 21
1.875
 31
0.0
  0
TEXT
  8
LAYER-1
 62
     7
  5
E5
 10
1.797222
 20
1.784722
 30
0.0
 40
0.1
  1
.350"
 41
0.611111
  0
LINE
  8
LAYER-1
  6
CONTINUOUS
 62
     7
  5
E6
 10
1.525
 20
-0.0625
 30
0.0
 11
1.525
 21
-0.558013
 31
0.0
  0
LINE
  8
LAYER-1
  6
CONTINUOUS
 62
     7
  5
E7
 10
2.025
 20
-0.0625
 30
0.0
 11
2.025
 21
-0.558013
 31
0.0
  0
SOLID
  8
LAYER-1
 62
     7
  5
E8
 10
1.525
 20
-0.433013
 30
0.0
 11
1.4
 21
-0.466506
 31
0.0
 12
1.4
 22
-0.399519
 32
0.0
 13
1.4
 23
-0.399519
 33
0.0
  0
LINE
  8
LAYER-1
  6
CONTINUOUS
 62
     7
  5
E9
 10
1.525
 20
-0.433013
 30
0.0
 11
1.225
 21
-0.433013
 31
0.0
  0
SOLID
  8
LAYER-1
 62
     7
  5
EA
 10
2.025
 20
-0.433013
 30
0.0
 11
2.15
 21
-0.399519
 31
0.0
 12
2.15
 22
-0.466506
 32
0.0
 13
2.15
 23
-0.466506
 33
0.0
  0
LINE
  8
LAYER-1
  6
CONTINUOUS
 62
     7
  5
EB
 10
2.025
 20
-0.433013
 30
0.0
 11
2.325
 21
-0.433013
 31
0.0
  0
TEXT
  8
LAYER-1
 62
     7
  5
EC
 10
1.622222
 20
-0.52329
 30
0.0
 40
0.1
  1
.500"
 41
0.611111
  0
LINE
  8
LAYER-1
  6
CONTINUOUS
 62
     7
  5
ED
 10
-1.9375
 20
1.5
 30
0.0
 11
-2.375
 21
1.5
 31
0.0
  0
LINE
  8
LAYER-1
  6
CONTINUOUS
 62
     7
  5
EE
 10
-1.6875
 20
1.1
 30
0.0
 11
-2.375
 21
1.1
 31
0.0
  0
SOLID
  8
LAYER-1
 62
     7
  5
EF
 10
-2.25
 20
1.5
 30
0.0
 11
-2.283494
 21
1.625
 31
0.0
 12
-2.216506
 22
1.625
 32
0.0
 13
-2.216506
 23
1.625
 33
0.0
  0
LINE
  8
LAYER-1
  6
CONTINUOUS
 62
     7
  5
F0
 10
-2.25
 20
1.5
 30
0.0
 11
-2.25
 21
1.8
 31
0.0
  0
SOLID
  8
LAYER-1
 62
     7
  5
F1
 10
-2.25
 20
1.1
 30
0.0
 11
-2.216506
 21
0.975
 31
0.0
 12
-2.283494
 22
0.975
 32
0.0
 13
-2.283494
 23
0.975
 33
0.0
  0
LINE
  8
LAYER-1
  6
CONTINUOUS
 62
     7
  5
F2
 10
-2.25
 20
1.1
 30
0.0
 11
-2.25
 21
0.8
 31
0.0
  0
TEXT
  8
LAYER-1
 62
     7
  5
F3
 10
-2.402778
 20
1.209722
 30
0.0
 40
0.1
  1
.400"
 41
0.611111
  0
TEXT
  8
LAYER-1
 62
     7
  5
F4
 10
-1.125
 20
-1.75
 30
0.0
 40
0.222222
  1
Lower Pivot Block
 41
0.591912
  0
TEXT
  8
LAYER-1
 62
     7
  5
F5
 10
-1.125
 20
-2.083333
 30
0.0
 40
0.222222
  1
Mat'l: Mild Steel
 41
0.591912
  0
SOLID
  8
LAYER-1
 62
     7
  5
F6
 10
-1.516747
 20
1.0375
 30
0.0
 11
-1.392351
 21
1.00183
 31
0.0
 12
-1.426851
 22
0.944411
 32
0.0
 13
-1.426851
 23
0.944411
 33
0.0
  0
LINE
  8
LAYER-1
  6
CONTINUOUS
 62
     7
  5
F7
 10
-1.516747
 20
1.0375
 30
0.0
 11
-0.5
 21
0.450481
 31
0.0
  0
LINE
  8
LAYER-1
  6
CONTINUOUS
 62
     7
  5
F8
 10
-0.5
 20
0.450481
 30
0.0
 11
-0.25
 21
0.450481
 31
0.0
  0
TEXT
  8
LAYER-1
 62
     7
  5
F9
 10
-0.25
 20
0.360203
 30
0.0
 40
0.1
  1
» .250"
 41
0.634921
  0
POLYLINE
  8
LAYER-1
  6
CONTINUOUS
 62
     7
  5
FA
 66
     1
 10
0.0
 20
0.0
 30
0.0
 70
     5
 40
0.028
 41
0.028
 75
     5
  0
VERTEX
  8
LAYER-1
  6
CONTINUOUS
 62
     7
  5
FB
 10
-1.935
 20
0.0
 30
0.0
  0
VERTEX
  8
LAYER-1
  6
CONTINUOUS
 62
     7
  5
FC
 10
-0.31
 20
0.0
 30
0.0
  0
VERTEX
  8
LAYER-1
  6
CONTINUOUS
 62
     7
  5
FD
 10
-0.31
 20
-0.938195
 30
0.0
  0
VERTEX
  8
LAYER-1
  6
CONTINUOUS
 62
     7
  5
FE
 10
-1.935
 20
-0.938195
 30
0.0
  0
SEQEND
  8
LAYER-1
  6
CONTINUOUS
  5
FF
  0
POLYLINE
  8
LAYER-1
  6
CONTINUOUS
 62
     7
  5
100
 66
     1
 10
0.0
 20
0.0
 30
0.0
 70
     5
 40
0.028
 41
0.028
 75
     5
  0
VERTEX
  8
LAYER-1
  6
CONTINUOUS
 62
     7
  5
101
 10
-0.81
 20
-0.469097
 30
0.0
  0
VERTEX
  8
LAYER-1
  6
CONTINUOUS
 62
     7
  5
102
 10
-0.810377
 20
-0.453759
 30
0.0
  0
VERTEX
  8
LAYER-1
  6
CONTINUOUS
 62
     7
  5
103
 10
-0.811505
 20
-0.438462
 30
0.0
  0
VERTEX
  8
LAYER-1
  6
CONTINUOUS
 62
     7
  5
104
 10
-0.813383
 20
-0.423235
 30
0.0
  0
VERTEX
  8
LAYER-1
  6
CONTINUOUS
 62
     7
  5
105
 10
-0.816006
 20
-0.408122
 30
0.0
  0
VERTEX
  8
LAYER-1
  6
CONTINUOUS
 62
     7
  5
106
 10
-0.819367
 20
-0.393152
 30
0.0
  0
VERTEX
  8
LAYER-1
  6
CONTINUOUS
 62
     7
  5
107
 10
-0.823458
 20
-0.378369
 30
0.0
  0
VERTEX
  8
LAYER-1
  6
CONTINUOUS
 62
     7
  5
108
 10
-0.828272
 20
-0.363801
 30
0.0
  0
VERTEX
  8
LAYER-1
  6
CONTINUOUS
 62
     7
  5
109
 10
-0.833792
 20
-0.349491
 30
0.0
  0
VERTEX
  8
LAYER-1
  6
CONTINUOUS
 62
     7
  5
10A
 10
-0.84001
 20
-0.335465
 30
0.0
  0
VERTEX
  8
LAYER-1
  6
CONTINUOUS
 62
     7
  5
10B
 10
-0.846907
 20
-0.321765
 30
0.0
  0
VERTEX
  8
LAYER-1
  6
CONTINUOUS
 62
     7
  5
10C
 10
-0.854471
 20
-0.308415
 30
0.0
  0
VERTEX
  8
LAYER-1
  6
CONTINUOUS
 62
     7
  5
10D
 10
-0.862678
 20
-0.295457
 30
0.0
  0
VERTEX
  8
LAYER-1
  6
CONTINUOUS
 62
     7
  5
10E
 10
-0.871514
 20
-0.282914
 30
0.0
  0
VERTEX
  8
LAYER-1
  6
CONTINUOUS
 62
     7
  5
10F
 10
-0.880952
 20
-0.270823
 30
0.0
  0
VERTEX
  8
LAYER-1
  6
CONTINUOUS
 62
     7
  5
110
 10
-0.890975
 20
-0.259206
 30
0.0
  0
VERTEX
  8
LAYER-1
  6
CONTINUOUS
 62
     7
  5
111
 10
-0.901556
 20
-0.248097
 30
0.0
  0
VERTEX
  8
LAYER-1
  6
CONTINUOUS
 62
     7
  5
112
 10
-0.912669
 20
-0.237518
 30
0.0
  0
VERTEX
  8
LAYER-1
  6
CONTINUOUS
 62
     7
  5
113
 10
-0.924285
 20
-0.227501
 30
0.0
  0
VERTEX
  8
LAYER-1
  6
CONTINUOUS
 62
     7
  5
114
 10
-0.936382
 20
-0.218063
 30
0.0
  0
VERTEX
  8
LAYER-1
  6
CONTINUOUS
 62
     7
  5
115
 10
-0.948924
 20
-0.209233
 30
0.0
  0
VERTEX
  8
LAYER-1
  6
CONTINUOUS
 62
     7
  5
116
 10
-0.961888
 20
-0.201026
 30
0.0
  0
VERTEX
  8
LAYER-1
  6
CONTINUOUS
 62
     7
  5
117
 10
-0.975234
 20
-0.193469
 30
0.0
  0
VERTEX
  8
LAYER-1
  6
CONTINUOUS
 62
     7
  5
118
 10
-0.988941
 20
-0.186573
 30
0.0
  0
VERTEX
  8
LAYER-1
  6
CONTINUOUS
 62
     7
  5
119
 10
-1.002964
 20
-0.18036
 30
0.0
  0
VERTEX
  8
LAYER-1
  6
CONTINUOUS
 62
     7
  5
11A
 10
-1.01728
 20
-0.174842
 30
0.0
  0
VERTEX
  8
LAYER-1
  6
CONTINUOUS
 62
     7
  5
11B
 10
-1.031845
 20
-0.170034
 30
0.0
  0
VERTEX
  8
LAYER-1
  6
CONTINUOUS
 62
     7
  5
11C
 10
-1.046633
 20
-0.165945
 30
0.0
  0
VERTEX
  8
LAYER-1
  6
CONTINUOUS
 62
     7
  5
11D
 10
-1.0616
 20
-0.162588
 30
0.0
  0
VERTEX
  8
LAYER-1
  6
CONTINUOUS
 62
     7
  5
11E
 10
-1.076717
 20
-0.159969
 30
0.0
  0
VERTEX
  8
LAYER-1
  6
CONTINUOUS
 62
     7
  5
11F
 10
-1.091941
 20
-0.158095
 30
0.0
  0
VERTEX
  8
LAYER-1
  6
CONTINUOUS
 62
     7
  5
120
 10
-1.107243
 20
-0.15697
 30
0.0
  0
VERTEX
  8
LAYER-1
  6
CONTINUOUS
 62
     7
  5
121
 10
-1.122424
 20
-0.156597
 30
0.0
  0
VERTEX
  8
LAYER-1
  6
CONTINUOUS
 62
     7
  5
122
 10
-1.137758
 20
-0.15697
 30
0.0
  0
VERTEX
  8
LAYER-1
  6
CONTINUOUS
 62
     7
  5
123
 10
-1.153059
 20
-0.158095
 30
0.0
  0
VERTEX
  8
LAYER-1
  6
CONTINUOUS
 62
     7
  5
124
 10
-1.168283
 20
-0.159969
 30
0.0
  0
VERTEX
  8
LAYER-1
  6
CONTINUOUS
 62
     7
  5
125
 10
-1.183401
 20
-0.162588
 30
0.0
  0
VERTEX
  8
LAYER-1
  6
CONTINUOUS
 62
     7
  5
126
 10
-1.198367
 20
-0.165945
 30
0.0
  0
VERTEX
  8
LAYER-1
  6
CONTINUOUS
 62
     7
  5
127
 10
-1.213155
 20
-0.170034
 30
0.0
  0
VERTEX
  8
LAYER-1
  6
CONTINUOUS
 62
     7
  5
128
 10
-1.22772
 20
-0.174842
 30
0.0
  0
VERTEX
  8
LAYER-1
  6
CONTINUOUS
 62
     7
  5
129
 10
-1.242036
 20
-0.18036
 30
0.0
  0
VERTEX
  8
LAYER-1
  6
CONTINUOUS
 62
     7
  5
12A
 10
-1.25606
 20
-0.186573
 30
0.0
  0
VERTEX
  8
LAYER-1
  6
CONTINUOUS
 62
     7
  5
12B
 10
-1.269766
 20
-0.193469
 30
0.0
  0
VERTEX
  8
LAYER-1
  6
CONTINUOUS
 62
     7
  5
12C
 10
-1.283113
 20
-0.201026
 30
0.0
  0
VERTEX
  8
LAYER-1
  6
CONTINUOUS
 62
     7
  5
12D
 10
-1.296077
 20
-0.209233
 30
0.0
  0
VERTEX
  8
LAYER-1
  6
CONTINUOUS
 62
     7
  5
12E
 10
-1.308618
 20
-0.218063
 30
0.0
  0
VERTEX
  8
LAYER-1
  6
CONTINUOUS
 62
     7
  5
12F
 10
-1.320715
 20
-0.227501
 30
0.0
  0
VERTEX
  8
LAYER-1
  6
CONTINUOUS
 62
     7
  5
130
 10
-1.332331
 20
-0.237518
 30
0.0
  0
VERTEX
  8
LAYER-1
  6
CONTINUOUS
 62
     7
  5
131
 10
-1.343444
 20
-0.248097
 30
0.0
  0
VERTEX
  8
LAYER-1
  6
CONTINUOUS
 62
     7
  5
132
 10
-1.354025
 20
-0.259206
 30
0.0
  0
VERTEX
  8
LAYER-1
  6
CONTINUOUS
 62
     7
  5
133
 10
-1.364048
 20
-0.270823
 30
0.0
  0
VERTEX
  8
LAYER-1
  6
CONTINUOUS
 62
     7
  5
134
 10
-1.373486
 20
-0.282914
 30
0.0
  0
VERTEX
  8
LAYER-1
  6
CONTINUOUS
 62
     7
  5
135
 10
-1.382322
 20
-0.295457
 30
0.0
  0
VERTEX
  8
LAYER-1
  6
CONTINUOUS
 62
     7
  5
136
 10
-1.390529
 20
-0.308415
 30
0.0
  0
VERTEX
  8
LAYER-1
  6
CONTINUOUS
 62
     7
  5
137
 10
-1.398093
 20
-0.321765
 30
0.0
  0
VERTEX
  8
LAYER-1
  6
CONTINUOUS
 62
     7
  5
138
 10
-1.40499
 20
-0.335465
 30
0.0
  0
VERTEX
  8
LAYER-1
  6
CONTINUOUS
 62
     7
  5
139
 10
-1.411208
 20
-0.349491
 30
0.0
  0
VERTEX
  8
LAYER-1
  6
CONTINUOUS
 62
     7
  5
13A
 10
-1.416729
 20
-0.363801
 30
0.0
  0
VERTEX
  8
LAYER-1
  6
CONTINUOUS
 62
     7
  5
13B
 10
-1.421542
 20
-0.378369
 30
0.0
  0
VERTEX
  8
LAYER-1
  6
CONTINUOUS
 62
     7
  5
13C
 10
-1.425633
 20
-0.393152
 30
0.0
  0
VERTEX
  8
LAYER-1
  6
CONTINUOUS
 62
     7
  5
13D
 10
-1.428994
 20
-0.408122
 30
0.0
  0
VERTEX
  8
LAYER-1
  6
CONTINUOUS
 62
     7
  5
13E
 10
-1.431617
 20
-0.423235
 30
0.0
  0
VERTEX
  8
LAYER-1
  6
CONTINUOUS
 62
     7
  5
13F
 10
-1.433495
 20
-0.438462
 30
0.0
  0
VERTEX
  8
LAYER-1
  6
CONTINUOUS
 62
     7
  5
140
 10
-1.434624
 20
-0.453759
 30
0.0
  0
VERTEX
  8
LAYER-1
  6
CONTINUOUS
 62
     7
  5
141
 10
-1.435
 20
-0.469097
 30
0.0
  0
VERTEX
  8
LAYER-1
  6
CONTINUOUS
 62
     7
  5
142
 10
-1.434624
 20
-0.484436
 30
0.0
  0
VERTEX
  8
LAYER-1
  6
CONTINUOUS
 62
     7
  5
143
 10
-1.433495
 20
-0.499733
 30
0.0
  0
VERTEX
  8
LAYER-1
  6
CONTINUOUS
 62
     7
  5
144
 10
-1.431617
 20
-0.51496
 30
0.0
  0
VERTEX
  8
LAYER-1
  6
CONTINUOUS
 62
     7
  5
145
 10
-1.428994
 20
-0.530073
 30
0.0
  0
VERTEX
  8
LAYER-1
  6
CONTINUOUS
 62
     7
  5
146
 10
-1.425633
 20
-0.545043
 30
0.0
  0
VERTEX
  8
LAYER-1
  6
CONTINUOUS
 62
     7
  5
147
 10
-1.421542
 20
-0.559825
 30
0.0
  0
VERTEX
  8
LAYER-1
  6
CONTINUOUS
 62
     7
  5
148
 10
-1.416729
 20
-0.574394
 30
0.0
  0
VERTEX
  8
LAYER-1
  6
CONTINUOUS
 62
     7
  5
149
 10
-1.411208
 20
-0.588704
 30
0.0
  0
VERTEX
  8
LAYER-1
  6
CONTINUOUS
 62
     7
  5
14A
 10
-1.40499
 20
-0.60273
 30
0.0
  0
VERTEX
  8
LAYER-1
  6
CONTINUOUS
 62
     7
  5
14B
 10
-1.398093
 20
-0.61643
 30
0.0
  0
VERTEX
  8
LAYER-1
  6
CONTINUOUS
 62
     7
  5
14C
 10
-1.390529
 20
-0.629779
 30
0.0
  0
VERTEX
  8
LAYER-1
  6
CONTINUOUS
 62
     7
  5
14D
 10
-1.382322
 20
-0.642737
 30
0.0
  0
VERTEX
  8
LAYER-1
  6
CONTINUOUS
 62
     7
  5
14E
 10
-1.373486
 20
-0.655281
 30
0.0
  0
VERTEX
  8
LAYER-1
  6
CONTINUOUS
 62
     7
  5
14F
 10
-1.364048
 20
-0.667372
 30
0.0
  0
VERTEX
  8
LAYER-1
  6
CONTINUOUS
 62
     7
  5
150
 10
-1.354025
 20
-0.678988
 30
0.0
  0
VERTEX
  8
LAYER-1
  6
CONTINUOUS
 62
     7
  5
151
 10
-1.343444
 20
-0.690098
 30
0.0
  0
VERTEX
  8
LAYER-1
  6
CONTINUOUS
 62
     7
  5
152
 10
-1.332331
 20
-0.700677
 30
0.0
  0
VERTEX
  8
LAYER-1
  6
CONTINUOUS
 62
     7
  5
153
 10
-1.320715
 20
-0.710694
 30
0.0
  0
VERTEX
  8
LAYER-1
  6
CONTINUOUS
 62
     7
  5
154
 10
-1.308618
 20
-0.720132
 30
0.0
  0
VERTEX
  8
LAYER-1
  6
CONTINUOUS
 62
     7
  5
155
 10
-1.296077
 20
-0.728962
 30
0.0
  0
VERTEX
  8
LAYER-1
  6
CONTINUOUS
 62
     7
  5
156
 10
-1.283113
 20
-0.737168
 30
0.0
  0
VERTEX
  8
LAYER-1
  6
CONTINUOUS
 62
     7
  5
157
 10
-1.269766
 20
-0.744726
 30
0.0
  0
VERTEX
  8
LAYER-1
  6
CONTINUOUS
 62
     7
  5
158
 10
-1.25606
 20
-0.751622
 30
0.0
  0
VERTEX
  8
LAYER-1
  6
CONTINUOUS
 62
     7
  5
159
 10
-1.242036
 20
-0.757834
 30
0.0
  0
VERTEX
  8
LAYER-1
  6
CONTINUOUS
 62
     7
  5
15A
 10
-1.22772
 20
-0.763353
 30
0.0
  0
VERTEX
  8
LAYER-1
  6
CONTINUOUS
 62
     7
  5
15B
 10
-1.213155
 20
-0.768161
 30
0.0
  0
VERTEX
  8
LAYER-1
  6
CONTINUOUS
 62
     7
  5
15C
 10
-1.198367
 20
-0.77225
 30
0.0
  0
VERTEX
  8
LAYER-1
  6
CONTINUOUS
 62
     7
  5
15D
 10
-1.183401
 20
-0.775607
 30
0.0
  0
VERTEX
  8
LAYER-1
  6
CONTINUOUS
 62
     7
  5
15E
 10
-1.168283
 20
-0.778226
 30
0.0
  0
VERTEX
  8
LAYER-1
  6
CONTINUOUS
 62
     7
  5
15F
 10
-1.153059
 20
-0.7801
 30
0.0
  0
VERTEX
  8
LAYER-1
  6
CONTINUOUS
 62
     7
  5
160
 10
-1.137758
 20
-0.781225
 30
0.0
  0
VERTEX
  8
LAYER-1
  6
CONTINUOUS
 62
     7
  5
161
 10
-1.122424
 20
-0.781597
 30
0.0
  0
VERTEX
  8
LAYER-1
  6
CONTINUOUS
 62
     7
  5
162
 10
-1.107243
 20
-0.781225
 30
0.0
  0
VERTEX
  8
LAYER-1
  6
CONTINUOUS
 62
     7
  5
163
 10
-1.091941
 20
-0.7801
 30
0.0
  0
VERTEX
  8
LAYER-1
  6
CONTINUOUS
 62
     7
  5
164
 10
-1.076717
 20
-0.778226
 30
0.0
  0
VERTEX
  8
LAYER-1
  6
CONTINUOUS
 62
     7
  5
165
 10
-1.0616
 20
-0.775607
 30
0.0
  0
VERTEX
  8
LAYER-1
  6
CONTINUOUS
 62
     7
  5
166
 10
-1.046633
 20
-0.77225
 30
0.0
  0
VERTEX
  8
LAYER-1
  6
CONTINUOUS
 62
     7
  5
167
 10
-1.031845
 20
-0.768161
 30
0.0
  0
VERTEX
  8
LAYER-1
  6
CONTINUOUS
 62
     7
  5
168
 10
-1.01728
 20
-0.763353
 30
0.0
  0
VERTEX
  8
LAYER-1
  6
CONTINUOUS
 62
     7
  5
169
 10
-1.002964
 20
-0.757834
 30
0.0
  0
VERTEX
  8
LAYER-1
  6
CONTINUOUS
 62
     7
  5
16A
 10
-0.988941
 20
-0.751622
 30
0.0
  0
VERTEX
  8
LAYER-1
  6
CONTINUOUS
 62
     7
  5
16B
 10
-0.975234
 20
-0.744726
 30
0.0
  0
VERTEX
  8
LAYER-1
  6
CONTINUOUS
 62
     7
  5
16C
 10
-0.961888
 20
-0.737168
 30
0.0
  0
VERTEX
  8
LAYER-1
  6
CONTINUOUS
 62
     7
  5
16D
 10
-0.948924
 20
-0.728962
 30
0.0
  0
VERTEX
  8
LAYER-1
  6
CONTINUOUS
 62
     7
  5
16E
 10
-0.936382
 20
-0.720132
 30
0.0
  0
VERTEX
  8
LAYER-1
  6
CONTINUOUS
 62
     7
  5
16F
 10
-0.924285
 20
-0.710694
 30
0.0
  0
VERTEX
  8
LAYER-1
  6
CONTINUOUS
 62
     7
  5
170
 10
-0.912669
 20
-0.700677
 30
0.0
  0
VERTEX
  8
LAYER-1
  6
CONTINUOUS
 62
     7
  5
171
 10
-0.901556
 20
-0.690098
 30
0.0
  0
VERTEX
  8
LAYER-1
  6
CONTINUOUS
 62
     7
  5
172
 10
-0.890975
 20
-0.678988
 30
0.0
  0
VERTEX
  8
LAYER-1
  6
CONTINUOUS
 62
     7
  5
173
 10
-0.880952
 20
-0.667372
 30
0.0
  0
VERTEX
  8
LAYER-1
  6
CONTINUOUS
 62
     7
  5
174
 10
-0.871514
 20
-0.655281
 30
0.0
  0
VERTEX
  8
LAYER-1
  6
CONTINUOUS
 62
     7
  5
175
 10
-0.862678
 20
-0.642737
 30
0.0
  0
VERTEX
  8
LAYER-1
  6
CONTINUOUS
 62
     7
  5
176
 10
-0.854471
 20
-0.629779
 30
0.0
  0
VERTEX
  8
LAYER-1
  6
CONTINUOUS
 62
     7
  5
177
 10
-0.846907
 20
-0.61643
 30
0.0
  0
VERTEX
  8
LAYER-1
  6
CONTINUOUS
 62
     7
  5
178
 10
-0.84001
 20
-0.60273
 30
0.0
  0
VERTEX
  8
LAYER-1
  6
CONTINUOUS
 62
     7
  5
179
 10
-0.833792
 20
-0.588704
 30
0.0
  0
VERTEX
  8
LAYER-1
  6
CONTINUOUS
 62
     7
  5
17A
 10
-0.828272
 20
-0.574394
 30
0.0
  0
VERTEX
  8
LAYER-1
  6
CONTINUOUS
 62
     7
  5
17B
 10
-0.823458
 20
-0.559825
 30
0.0
  0
VERTEX
  8
LAYER-1
  6
CONTINUOUS
 62
     7
  5
17C
 10
-0.819367
 20
-0.545043
 30
0.0
  0
VERTEX
  8
LAYER-1
  6
CONTINUOUS
 62
     7
  5
17D
 10
-0.816006
 20
-0.530073
 30
0.0
  0
VERTEX
  8
LAYER-1
  6
CONTINUOUS
 62
     7
  5
17E
 10
-0.813383
 20
-0.51496
 30
0.0
  0
VERTEX
  8
LAYER-1
  6
CONTINUOUS
 62
     7
  5
17F
 10
-0.811505
 20
-0.499733
 30
0.0
  0
VERTEX
  8
LAYER-1
  6
CONTINUOUS
 62
     7
  5
180
 10
-0.810377
 20
-0.484436
 30
0.0
  0
SEQEND
  8
LAYER-1
  6
CONTINUOUS
  5
181
  0
SOLID
  8
LAYER-1
 62
     7
  5
182
 10
-1.75
 20
0.0
 30
0.0
 11
-1.827881
 21
-0.103351
 31
0.0
 12
-1.869122
 22
-0.050564
 32
0.0
 13
-1.869122
 23
-0.050564
 33
0.0
  0
LINE
  8
LAYER-1
  6
CONTINUOUS
 62
     7
  5
183
 10
-2.375
 20
-0.5
 30
0.0
 11
-1.75
 21
0.0
 31
0.0
  0
LINE
  8
LAYER-1
  6
CONTINUOUS
 62
     7
  5
184
 10
-2.375
 20
-0.5
 30
0.0
 11
-2.5
 21
-0.5
 31
0.0
  0
TEXT
  8
LAYER-1
 62
     7
  5
185
 10
-3.663281
 20
-0.582024
 30
0.0
 40
0.1
  1
Weld to Pivot Block
 41
0.566611
  0
SOLID
  8
LAYER-1
 62
     7
  5
186
 10
-1.935
 20
-0.75
 30
0.0
 11
-2.009226
 21
-0.856006
 31
0.0
 12
-2.052285
 22
-0.804691
 32
0.0
 13
-2.052285
 23
-0.804691
 33
0.0
  0
LINE
  8
LAYER-1
  6
CONTINUOUS
 62
     7
  5
187
 10
-2.375
 20
-1.125
 30
0.0
 11
-1.935
 21
-0.75
 31
0.0
  0
LINE
  8
LAYER-1
  6
CONTINUOUS
 62
     7
  5
188
 10
-2.375
 20
-1.125
 30
0.0
 11
-2.5
 21
-1.125
 31
0.0
  0
TEXT
  8
LAYER-1
 62
     7
  5
189
 10
-3.59879
 20
-1.155087
 30
0.0
 40
0.1
  1
1/2-13 Commercial
 41
0.651365
  0
TEXT
  8
LAYER-1
 62
     7
  5
18A
 10
-3.59879
 20
-1.319134
 30
0.0
 40
0.1
  1
Speed nut
 41
0.651365
  0
TEXT
  8
LAYER-1
 62
     7
  5
18B
 10
-2.942601
 20
-2.457213
 30
0.0
 40
0.1
  1
Caution: When welding the Speed nut to the pivot block, use spindle to center nut on 1/2" hole,
 41
0.520769
  0
TEXT
  8
LAYER-1
 62
     7
  5
18C
 10
-2.942601
 20
-2.621261
 30
0.0
 40
0.1
  1
                 if necessary wrap spindle with tape to help center it and use small tack welds so as
 41
0.520769
  0
TEXT
  8
LAYER-1
 62
     7
  5
18D
 10
-2.942601
 20
-2.785308
 30
0.0
 40
0.1
  1
                 to not distort or warp the parts. Spindle must pass freely thru the unit.
 41
0.520769
  0
TEXT
  8
LAYER-1
 62
     7
  5
18E
 10
-0.105
 20
0.224456
 30
0.0
 40
0.1
  1
.251
 41
0.66808
  0
TEXT
  8
LAYER-1
 62
     7
  5
18F
 10
1.625
 20
-0.650544
 30
0.0
 40
0.1
  1
.505
 41
0.66808
  0
ENDSEC
  0
EOF
